Oops, an error
Loading. Please wait.
We have an official Street Fighter Ii - Kens Theme tab made by UG professional guitarists. Check out the tab »
×
19,570 views 36 this week
no commentswrite comment
1 2 3 4 5
x 9
add to favorites
×
Save as Personal and add changes to this tab that will be seen only by you. Learn more ›
×
You can save this tab as Personal to edit and correct it or add notes. All changes will be seen only by you. Learn more »
launch autoscroll
font size
0
reset
how to read this tab
guitar tuner
edit
Autoscroll
slow
fast
+/-
esc
set tempo
stop
try to listen to the song a few times to get the beat because I am not marking
pauses (like between the second 1 and the third in the beginning of the song).
The notes in parentheses () are to add a solo effect and you don't have to play
them. However for a better sound  you should play them (if you listen to the
music you will understand what I mean)


        INTRO

E -----------------------------------------------------------------------------|
B -----------------------------------------------------------------------------|
G -----------------------------------------------------------------------------|
D -0----0----------------------------------------------------------------------|
A ----0----3--3--1--1--1--0--------------------------------------------1-------|
E ---------------------------3--3--3--3--3--3--3--3--3--3--3--3--3--3----------|


E -----------------------------------------------------------------------------|
B -----------------------------------------------------------------------------|
G -----------------------------------------------------------------------------|
D -------------------0---------------------------------------------------------|
A -0--0--0--0--0--0------------------------------------------------------------|
E -----------------------------------------------------------------------------|

        Main Riff

E -----------------------------------------------------------------------------|
B -----------------------------------------------------------------2--3--2--0--|
G --------0---------------------------0-------------------------0--------------|
D -----0-----3--2--0--0-----0------0----3--2--0--0-----0-----0-----------------|
A --0--------------------3------0-------------------3-----0--------------------|
E -----------------------------------------------------------------------------|

E -----------------------------------------------------------------------------|
B -----0--2--0-----------------------------------------------------------------|
G --3-----------3--2--3--2----------0---------------------------0--------------|
D -------------------------------0-----3--2--0--0-----0------0-----3--2--0-0---|
A -------------------------0--0--------------------3------0------------------3-|
E -----------------------------------------------------------------------------|


E -----------------------------------------------------------------------------|
B -----------------------------------------------------------------------------|
G ----------0--2--3--2--0----0--2--0-----------------------0-------------2--0--|
D -0-----0-----------------3---------3--2--3--2--0--2---3-----3--2--0----------|
A ----0----------------------------------------------------------------3-------|
E -----------------------------------------------------------------------------|

E -----------------------------------------------------------------------------|
B -----------------------------------------------------------------------------|
G -2-(-2--2--2--2--2--2--2)-----------0--------------3--0--2-(-2--2--2--2--2---|
D ---------------------------0--2--3-----3--2--0-------------------------------|
A ------------------------------------------------3----------------------------|
E -----------------------------------------------------------------------------|


E -----------------------------------------------------------------------------|
B -----------------------------------------------------------------------------|
G --2--2--2--2--2--2--2--2)----------------------------------------------------|
D -----------------------------------------------------------------------------|
A -----------------------------------------------------------------------------|
E -----------------------------------------------------------------------------|

        Solo (there's no pause between the main riff and the solo, however listen
carefully to the song for the rythm)

E -----------------------------------------------------------------------------|
B -----------------------------------------------------------------------------|
G --2--0-----0-------------------------------------0-------0--0----------------|
D --------3----3--2--0-----3--2--0-----0--2--3-------3--2--------3--2--3--2--0-|
A ----------------------0-----------3-----------0------------------------------|
E -----------------------------------------------------------------------------|

E -----------------------------------------------------------------------------|
B -----------------------------------------------------------------------------|
G -------2--2--2--2--2--2--2--2--0-----0---------------------------------------|
D ----0-----------------------------3-----3--2--0-----3--2--0-----0--2--3------|
A -3-----------------------------------------------0-----------3---------------|
E -----------------------------------------------------------------------------|

E -----------------------------------------------------------------------------|
B -----------------------------------------------------------------------------|
G --0--2--3--0-----------------------------------------------------------------|
D --------------3-----0--------------------------------------------------------|
A -----------------3-----------------------------------------------------------|
E -----------------------------------------------------------------------------|


That's it, just follow the song's rythm and you will be able to do the song
without too much effort

            
            
Suggest correction
Creating personal tab
Creating personal tab
You can edit any tab online and save it as your Personal.

You can edit, replace or remove any tab part or add personal notes – all changes will be seen only by you.

Personal tabs can be accessed anytime from any device, even offline.
Learn more »
comments
print report bad tab
guest
You may want to rate the tab now too:
select rating
Wanna post a correction for this tab? Suggest correction