Oops, an error
Loading. Please wait.

Super Castlevania 4 - Chandeliers Stage 6-2 Bass Tab

version 1
version 1

Whole song

Interactive

31 views 1 this week
no commentswrite comment
1 2 3 4 5
3 more votes to show rating
add to favorites
launch autoscroll
font size
0
reset
guitar tuner
Autoscroll
slow
fast
+/-
esc
set tempo
stop
Help us to improve Ultimate-Guitar.com Take our survey!
×
Author
Difficulty
advanced
#----------------------------------PLEASE NOTE---------------------------------#
#This file is the author's own work and represents their interpretation of the #
#song. You may only use this file for private study, scholarship, or research. #
#------------------------------------------------------------------------------##

Super Castlevania 4 (SNES) - Chandeliers(Stage 6-2 theme)...on bass!!!

Gtr I (B E A D G) - 'Left Hand Honky-Tonk Piano Bass'
Gtr II (B E A D G) - 'bass'

  Gtr II
   H.       Q     H     H       H     Q   Q
G|--------------|-------------|---------------|
D|--------------|-------------|---------------|
A|----------12--|-11----------|---------------|
E|-13-----------|-------12----|-11--------11--|
B|--------------|-------------|-------10------|


     E E  E E E  E E E    E E E  E E E E E
G||---------------------|---------------7---|
D||o-14-----------------|-----------------9-|
A||---------------------|-----------8-8-----|
E||o------11-9-7--------|-11-9-7------------|
B||--------------10-8-6-|--------10---------|


  Gtr I
  +S  E. +Q   +S   E. S E.    S  E.  +Q    +S  E. +S  E.
G|--------------------------|------------------------------|
D|-(9)----------------------|------------------------------|
A|--------------------------|-------------------7--(7)-8---|
E|-----------------------8--|----11--(11)--(11)------------|
B|-----9--(9)--(9)-10-------|-10---------------------------|


  Gtr II
  E  E  E  E  E E E E   E E  E E  E E  E  E
G|-8-------------------|-------------8-19-16-|
D|---10-10-10-10-7-7-7-|-7------7-10---------|
A|---------------------|---8-11--------------|
E|---------------------|---------------------|
B|---------------------|---------------------|


  Gtr I
   +S   E.  +Q    +S   E. S  E.    S  E.  +Q    +S   E.  +S   E.
G|-(16)--------------------------|--------------------------------|
D|-------------------------------|----------------------------15--|
A|---------------------------15--|----18--(18)--(18)-19--(19)-----|
E|------16--(16)--(16)-17--------|-17-----------------------------|
B|-------------------------------|--------------------------------|


  Gtr II
   E  E  E  E  E  E  E  E    E  E  E  E  E  E  E  E
G|-13----------------------|-------------------------|
D|----14-14-14-14----------|-------------------------|
A|----------------14-14-14-|-14-11-11----------------|
E|-------------------------|----------13-13-12-12-10-|
B|-------------------------|-------------------------|


  E.  S S S  S S  S  S E  E  E   E. S S  S S S S S E E E
G|------------------------------|-------------------------|
D|------------------------------|-------------------------|
A|---------7------10-10-9-------|---------------8-8-7-----|
E|-9-----9------9---------10----|-7----7-10---7-------8-6-|
B|----10-----10--------------10-|----8------8-------------|


  E. S S S S S S S E E. S   S E. +S  S S S +S  E. +S  S S S
G|-------------------------|---------------------------------|
D|-------------------------|---------------------------------|
A|--------------6-6-5-8----|---7--(7)-5-7-5-(5)-4--(4)---4-7-|
E|-5----5-8---5----------6-|-6-------------------------5-----|
B|----6-----6--------------|---------------------------------|


   E  E E  E  E  E E  E    E  E E  E E E E E
G|-12-12---12-11-11---11-|-10-10---10-9-9---9---|
D|-----------------------|----------------------|
A|-----------------------|----------------------|
E|-----------------------|----------------------|
B|-----------------------|----------------------|


  E E E E E E E E   E E E E E E E. S   W          +W
G|-8-8---8-7-7---7-|-9-9-7-7-6-6-9----|----------|--------|
D|-----------------|------------------|----------|--------|
A|-----------------|----------------7-|----------|--------|
E|-----------------|------------------|-5--------|-(5)----|
B|-----------------|------------------|----------|--------|


  +W           +W           W          +W
G|------------|------------|----------|--------|
D|------------|------------|----------|--------|
A|------------|------------|----------|--------|
E|-(5)--------|-(5)--------|----------|--------|
B|------------|------------|-7--------|-(7)----|


                                            |--3--|  |--3--|
  W          Q  Q  Q  Q     Q   S  S  S  S  E  E  E  E  E  E
G|----------|-------------|-----15-12-------------------12-15-|
D|----------|-------------|-14--------14-------------14-------|
A|----------|-------5--6--|--------------15----13-16----------|
E|----------|-5--8--------|-----------------15----------------|
B|-6--------|-------------|-----------------------------------|


                   |--3--|  |--3--|
   Q   S  S  S  S  E  E  E  E  E  E
G|-----15-12-------------------12-15--|
D|-13--------13-------------13--------|
A|--------------15----14-16-----------|
E|-----------------15-----------------|
B|------------------------------------|


                   |--3--|  |--3--|
   Q   S  S  S  S  E  E  E  E  E  E    Q   Q   Q   Q
G|-----15-12-------------------12-15-|---------15--18--|
D|-12--------12-------------12-------|-----17----------|
A|--------------13----12-13----------|-16--------------|
E|-----------------15----------------|-----------------|
B|-----------------------------------|-----------------|


   Q.    E  E  E  E  E    Q.    E  E  E  E  E
G|-19-------18----18----|-19-------18----17-18---|
D|-------19----17----17-|-------19----20---------|
A|----------------------|------------------------|
E|----------------------|------------------------|
B|----------------------|------------------------|


   Q   Q   Q   Q     Q   Q   Q   Q    W
G|-19--20--19--18--|-17--14----------|----------|
D|-----------------|---------16--13--|----------|
A|-----------------|-----------------|----------|
E|-----------------|-----------------|----------|
B|-----------------|-----------------|-8--------|


  W          H    H      H     H
G|----------|-----------|-7----10-----||
D|----------|-----------|------------o||
A|----------|-7----8----|-------------||
E|----------|-----------|------------o||
B|-8--------|-----------|-------------||



************************************

| (n)  Ghost note
| o    reprise

************************************
Suggest correction
Give kudos to tab author, rate the tab!
1 2 3 4 5
comments
print report bad tab
guest
You may want to rate the tab now too:
select rating
Wanna post a correction for this tab? Suggest correction