Oops, an error
Loading. Please wait.

Super Castlevania 4 - The Submerged City Stage 3-3 bass

version 1
version 1

Whole song

Interactive

28 views 1 this week
no commentswrite comment
1 2 3 4 5
3 more votes to show rating
add to favorites
×
Save as Personal and add changes to this tab that will be seen only by you. Learn more ›
×
You can save this tab as Personal to edit and correct it or add notes. All changes will be seen only by you. Learn more »
launch autoscroll
font size
0
reset
guitar tuner
edit
Autoscroll
slow
fast
+/-
esc
set tempo
stop
[3/8]
  
G|------|------|------|------|------|------|
D|------|------|------|------|------|------|
A|------|------|------|------|------|------|
E|------|------|------|------|------|------|
B|------|------|------|------|------|------|

  
G|------|------|------|------|------|--------|
D|------|------|------|------|------|--------|
A|------|------|------|------|------|--------|
E|------|------|------|------|------|--------|
B|------|------|------|------|------|--------|


G|------|------|------|---7---||-------|-------|-------|----------|
D|------|------|------|-----8-||o------|-------|-------|------7---|
A|------|------|------|-------||--9----|-------|-9--10-|-(10)-----|
E|------|------|------|-------||o------|-10----|-------|----------|
B|------|------|------|-------||-------|-----7-|-------|----------|


G|-----|----------|-12-----|----------|------|-------|--------|-------|
D|-----|-------12-|-----12-|-(12)-----|------|-------|--------|-------|
A|-10--|----13----|--------|------13--|-9----|-----9-|-(9)--9-|-10-9--|
E|-----|-10-------|--------|----------|------|-10----|--------|-------|
B|-----|----------|--------|----------|------|-------|--------|-------|


G|--------|-------|-10--7-|-------|------|-------|-------|-----------|
D|--------|-------|-------|-8-----|------|-------|-------|------7----|
A|-10-----|----10-|-------|---10--|-9----|-------|-9--10-|-(10)------|
E|----10--|-------|-------|-------|------|-10----|-------|-----------|
B|--------|-8-----|-------|-------|------|-----7-|-------|-----------|


G|-------|----------|-12-----|----------|------|-------|--------|---------|
D|-------|-------12-|-----12-|-(12)-----|------|-------|--------|---------|
A|-10----|----13----|--------|------13--|-9----|-----9-|-(9)--9-|-10-9----|
E|-------|-10-------|--------|----------|------|-10----|--------|---------|
B|-------|----------|--------|----------|------|-------|--------|---------|


G|--------|-------|-10--7-|-------|
D|--------|-------|-------|-9-----|
A|-10-----|----10-|-------|---10--|
E|----10--|-------|-------|-------|
B|--------|-8-----|-------|-------|


 [12/8]
 
G|-----------------------|------------------------|
D|-----------------------|------------------------|
A|-9----------------9----|-10---------------------|
E|--------------------10-|-------10-------(10)----|
B|---------7----(7)------|------------------------|


G|--------------------------|--------------10--7-------|
D|--------------------------|--------------------8-----|
A|-9----------------9-10-9--|-10--------10---------10--|
E|------10----(10)----------|----10--------------------|
B|--------------------------|--------8-----------------|


G|-----------------------|------------------------|
D|-----------------------|------------------------|
A|-9----------------9----|-10---------------------|
E|--------------------10-|-------10-------(10)----|
B|---------7----(7)------|------------------------|


G|--------------------------|--------------10--7-------|
D|--------------------------|--------------------8-----|
A|-9----------------9-10-9--|-10--------10---------10--|
E|------10----(10)----------|----10--------------------|
B|--------------------------|--------8-----------------|


G|-----------------------|------------------------|
D|-----------------------|------------------------|
A|-9----------------9----|-10---------------------|
E|--------------------10-|-------10-------(10)----|
B|---------7----(7)------|------------------------|


G|--------------------------|--------------10--7-------|
D|--------------------------|--------------------8-----|
A|-9----------------9-10-9--|-10--------10---------10--|
E|------10----(10)----------|----10--------------------|
B|--------------------------|--------8-----------------|


G|-----------------------|------------------------|
D|-----------------------|------------------------|
A|-9----------------9----|-10---------------------|
E|--------------------10-|-------10-------(10)----|
B|---------7----(7)------|------------------------|


G|--------------------------|--------------10--7-------|
D|--------------------------|--------------------8-----|
A|-9----------------9-10-9--|-10--------10---------10--|
E|------10----(10)----------|----10--------------------|
B|--------------------------|--------8-----------------|


G|-----------------------|------------------------|
D|-----------------------|------------------------|
A|-9----------------9----|-10---------------------|
E|--------------------10-|-------10-------(10)----|
B|---------7----(7)------|------------------------|


G|--------------------------|--------------10--7-------|
D|--------------------------|--------------------8-----|
A|-9----------------9-10-9--|-10--------10---------10--|
E|------10----(10)----------|----10--------------------|
B|--------------------------|--------8-----------------|


G|-----------------------|------------------------|
D|-----------------------|------------------------|
A|-9----------------9----|-10---------------------|
E|--------------------10-|-------10-------(10)----|
B|---------7----(7)------|------------------------|


G|--------------------------|--------------10--7-------|
D|--------------------------|--------------------8-----|
A|-9----------------9-10-9--|-10--------10---------10--|
E|------10----(10)----------|----10--------------------|
B|--------------------------|--------8-----------------|


 [3/8]
 
G|------|-------|-------|--------|
D|------|-------|-------|------7-|
A|-9----|-------|-9--10-|-(10)---|
E|------|-10----|-------|--------|
B|------|-----7-|-------|--------|


G|-------|----------|-12-----|----------|------|-------|--------|---------|
D|-------|-------12-|-----12-|-(12)-----|------|-------|--------|---------|
A|-10----|----13----|--------|------13--|-9----|-----9-|-(9)--9-|-10-9----|
E|-------|-10-------|--------|----------|------|-10----|--------|---------|
B|-------|----------|--------|----------|------|-------|--------|---------|


G|--------|-------|-10--7-|-------|------|-------|-------|-----------|
D|--------|-------|-------|-8-----|------|-------|-------|------7----|
A|-10-----|----10-|-------|---10--|-9----|-------|-9--10-|-(10)------|
E|----10--|-------|-------|-------|------|-10----|-------|-----------|
B|--------|-8-----|-------|-------|------|-----7-|-------|-----------|


G|-------|----------|-12-----|----------|------|-------|--------|---------|
D|-------|-------12-|-----12-|-(12)-----|------|-------|--------|---------|
A|-10----|----13----|--------|------13--|-9----|-----9-|-(9)--9-|-10-9----|
E|-------|-10-------|--------|----------|------|-10----|--------|---------|
B|-------|----------|--------|----------|------|-------|--------|---------|


G|--------|-------|-10--7-|-------|
D|--------|-------|-------|-9-----|
A|-10-----|----10-|-------|---10--|
E|----10--|-------|-------|-------|
B|--------|-8-----|-------|-------|


 [12/8]
 
G|-----------------------|----------------------|
D|-----------------------|----------------------|
A|-9----------------9----|-10-------------------|
E|--------------------10-|-------10-------(10)--|
B|---------7----(7)------|----------------------|


G|--------------------------|--------------10--7-------|
D|--------------------------|--------------------8-----|
A|-9----------------9-10-9--|-10--------10---------10--|
E|------10----(10)----------|----10--------------------|
B|--------------------------|--------8-----------------|


G|-----------------------|------------------------|
D|-----------------------|------------------------|
A|-9----------------9----|-10---------------------|
E|--------------------10-|-------10-------(10)----|
B|---------7----(7)------|------------------------|


G|--------------------------|--------------10--7-------|
D|--------------------------|--------------------8-----|
A|-9----------------9-10-9--|-10--------10---------10--|
E|------10----(10)----------|----10--------------------|
B|--------------------------|--------8-----------------|


G|-----------------------|------------------------|
D|-----------------------|------------------------|
A|-9----------------9----|-10---------------------|
E|--------------------10-|-------10-------(10)----|
B|---------7----(7)------|------------------------|


G|--------------------------|--------------10--7-------|
D|--------------------------|--------------------8-----|
A|-9----------------9-10-9--|-10--------10---------10--|
E|------10----(10)----------|----10--------------------|
B|--------------------------|--------8-----------------|


G|-----------------------|------------------------|
D|-----------------------|------------------------|
A|-9----------------9----|-10---------------------|
E|--------------------10-|-------10-------(10)----|
B|---------7----(7)------|------------------------|


G|--------------------------|--------------10--7-------|
D|--------------------------|--------------------8-----|
A|-9----------------9-10-9--|-10--------10---------10--|
E|------10----(10)----------|----10--------------------|
B|--------------------------|--------8-----------------|


 [3/8]
 
G|------|-------|-------|--------|
D|------|-------|-------|------7-|
A|-9----|-------|-9--10-|-(10)---|
E|------|-10----|-------|--------|
B|------|-----7-|-------|--------|


G|-------|----------|-12-----|----------|------|-------|--------|---------|
D|-------|-------12-|-----12-|-(12)-----|------|-------|--------|---------|
A|-10----|----13----|--------|------13--|-9----|-----9-|-(9)--9-|-10-9----|
E|-------|-10-------|--------|----------|------|-10----|--------|---------|
B|-------|----------|--------|----------|------|-------|--------|---------|


G|--------|-------|-10--7-|-------|------|-------|-------|-----------|
D|--------|-------|-------|-8-----|------|-------|-------|------7----|
A|-10-----|----10-|-------|---10--|-9----|-------|-9--10-|-(10)------|
E|----10--|-------|-------|-------|------|-10----|-------|-----------|
B|--------|-8-----|-------|-------|------|-----7-|-------|-----------|


G|-------|----------|-12-----|----------|------|-------|--------|---------|
D|-------|-------12-|-----12-|-(12)-----|------|-------|--------|---------|
A|-10----|----13----|--------|------13--|-9----|-----9-|-(9)--9-|-10-9----|
E|-------|-10-------|--------|----------|------|-10----|--------|---------|
B|-------|----------|--------|----------|------|-------|--------|---------|


G|--------|-------|-10--7-|-------|
D|--------|-------|-------|-9-----|
A|-10-----|----10-|-------|---10--|
E|----10--|-------|-------|-------|
B|--------|-8-----|-------|-------|


 [12/8]
 
G|----------------------------------|---------------------------------|
D|----------------------------------|---------------------------------|
A|-12----(12)-12--(12)--12-(12)-13--|-10----(10)-10--(10)--13-(13)-12-|
E|----------------------------------|---------------------------------|
B|----------------------------------|---------------------------------|


G|-----------------------|----------------12--------------|
D|--------------------7--|-------------12-----12-(12)-----|
A|-7---------7--7-(7)----|-10-------13----------------13--|
E|------7-7--------------|-------10-----------------------|
B|-----------------------|--------------------------------|


G|-------------------------|----------------------------------|
D|-------------6-----------|----------------------------------|
A|-8----(8)-8-----9-(9)--8-|----10-(10)--10-10----------10----|
E|-------------------------|--------------------10-(10)-------|
B|-------------------------|----------------------------------|


G|-----------------------------|-----------------------------|
D|-----------------------------|-----------------------------|
A|-12----12--12------------12--|-12----12--12------------12--|
E|--------------12----(12)-----|--------------12----(12)-----|
B|-----------------------------|-----------------------------|


G|-----------------------------|--------------------------------||
D|-----------------------------|-------------------10-13-------o||
A|-14----14----14----------14--|-11-------------10-------11-----||
E|-----------------14-(14)-----|-------------12----------------o||
B|-----------------------------|----------10--------------------||



************************************

| (n)  Ghost note

************************************
Suggest correction
Creating personal tab
Creating personal tab
You can edit any tab online and save it as your Personal.

You can edit, replace or remove any tab part or add personal notes – all changes will be seen only by you.

Personal tabs can be accessed anytime from any device, even offline.
Learn more »
Give kudos to tab author, rate the tab!
1 2 3 4 5
comments
print report bad tab
guest
You may want to rate the tab now too:
select rating
Wanna post a correction for this tab? Suggest correction