Oops, an error
Loading. Please wait.

Super Castlevania 4 - The Submerged City Stage 3-3 tab

version 1
version 1

Whole song

Interactive

25 views 1 this week
no commentswrite comment
1 2 3 4 5
2 more votes to show rating
add to favorites
×
Save as Personal and add changes to this tab that will be seen only by you. Learn more ›
×
You can save this tab as Personal to edit and correct it or add notes. All changes will be seen only by you. Learn more »
launch autoscroll
font size
0
reset
how to read this tab
guitar tuner
edit
Autoscroll
slow
fast
+/-
esc
set tempo
stop
#----------------------------------PLEASE NOTE---------------------------------#
#This file is the author's own work and represents their interpretation of the #
#song. You may only use this file for private study, scholarship, or research. #
#------------------------------------------------------------------------------##

Super Castlevania 4 (SNES) - The Submerged City (stage 3-3)

Gtr I (E A D G B E) - 'Organ'
Gtr II (E A D G B E) - 'Flute'
Gtr III (E A D G B E) - 'Electric Piano'
Gtr IV (E A D G B E) - 'Electric Piano'
Gtr V (E A D G B E) - 'Strings'

Note: Flute solo transcribed for 27 fret guitar, but really requires 29+ frets to not require string bending.

  Q=200
 3/8
  Gtr I
   E  E  E    E  E  E    Q    E    E  E  E
|----------|-20----19-|---------|-20----19-|
|----17-18-|----17----|------18-|----17----|
|----------|----------|-19------|----------|
|-19-------|----------|---------|----------|
|----------|----------|---------|----------|
|----------|----------|---------|----------|
|
| Gtrs I, II
|  E  E  E    E  E  E    E Q       E  E  E
|----------|-----8----|--7------|-----8----|
|----------|----------|---------|----------|
|--------9-|-10-----9-|----7----|-10-----9-|
|-----7----|----------|---------|----------|
|----------|----------|---------|----------|
|----------|----------|---------|----------|


   E  E  E    E  E  E    Q    E    E  E  E
|----------|-20----19-|---------|-20----19----|
|----17-18-|----17----|------18-|----17-------|
|----------|----------|-19------|-------------|
|-19-------|----------|---------|-------------|
|----------|----------|---------|-------------|
|----------|----------|---------|-------------|
|
|  E  E  E    E  E  E    E Q       E  E  E
|--7-------|-----8----|--7------|-----8-------|
|----------|----------|---------|-------------|
|--------9-|-10-----9-|----7----|-10-----9----|
|-----7----|----------|---------|-------------|
|----------|----------|---------|-------------|
|----------|----------|---------|-------------|


   E  E  E    E  E  E    Q    E    E  E  E
|----------|-20----19-|---------|-20----19-|
|----17-18-|----17----|------18-|----17----|
|----------|----------|-19------|----------|
|-19-------|----------|---------|----------|
|----------|----------|---------|----------|
|----------|----------|---------|----------|
|
|  E  E  E    E  E  E    E Q       E  E  E
|--7-------|-----8----|--7------|-----8----|
|----------|----------|---------|----------|
|--------9-|-10-----9-|----7----|-10-----9-|
|-----7----|----------|---------|----------|
|----------|----------|---------|----------|
|----------|----------|---------|----------|


   E  E  E    E  E  E    Q    E    E  E  E
|----------|-20----19-|---------|-20----19----|
|----17-18-|----17----|------18-|----17-------|
|----------|----------|-19------|-------------|
|-19-------|----------|---------|-------------|
|----------|----------|---------|-------------|
|----------|----------|---------|-------------|
|
|  E  E  E    E  E  E    E Q       E  E  E
|--7-------|-----8----|--7------|-----8-------|
|----------|----------|---------|-------------|
|--------9-|-10-----9-|----7----|-10-----9----|
|-----7----|----------|---------|-------------|
|----------|----------|---------|-------------|
|----------|----------|---------|-------------|


     E  E  E    E  E E    Q    E     E  E  E
||-----------|--8----7-|---------|---8-----7-|
||o----------|---------|---------|-----------|
||------9-10-|-----9---|--7---10-|------9----|
||---7-------|---------|---------|-----------|
||o----------|---------|---------|-----------|
||-----------|---------|---------|-----------|
|
|   Gtr III
|    Q.         Q.        Q.        +Q.
||-----------|---------|---------|-----------|
||o----------|---------|---------|-----------|
||-----------|---------|---------|-----------|
||-----------|---------|---------|-----------|
||o--7-------|--8------|--7------|--(7)------|
||-----------|---------|---------|-----------|
|
|   Gtr IV
|    Q     E    Q.        Q.        +Q     E
||-----------|---------|---------|-----------|
||o----------|---------|---------|-----------|
||-----------|---------|---------|-----------|
||--10-------|-10------|-10------|-(10)------|
||o--------7-|---------|---------|--------10-|
||-----------|---------|---------|-----------|


  E  E E    E  E  E    +E   E  E    E  E E
|--------|--8-------|------------|--8----7----|
|--------|-------10-|-(10)-------|------------|
|----7-9-|-----9----|---------10-|-----9------|
|-8------|----------|------10----|------------|
|--------|----------|------------|------------|
|--------|----------|------------|------------|
|
| Q.        Q.          Q.         +Q.
|--------|----------|------------|------------|
|--------|----------|------------|------------|
|--------|----------|------------|------------|
|--------|----------|------------|------------|
|-8------|-10-------|---8--------|-(8)--------|
|--------|----------|------------|------------|
|
| Q    E    Q.          Q.         +Q.
|--------|----------|------------|------------|
|--------|----------|------------|------------|
|--------|----------|------------|------------|
|-8------|--8-------|---8--------|-(8)--------|
|------9-|----------|------------|------------|
|--------|----------|------------|------------|


   E  E  E    E  E E    Q    E     E  E  E
|----------|--8----7-|---------|---8-----7-|
|----------|---------|---------|-----------|
|-----9-10-|-----9---|--7---10-|------9----|
|--7-------|---------|---------|-----------|
|----------|---------|---------|-----------|
|----------|---------|---------|-----------|
|
|  Q.         Q.        Q.        +Q.
|----------|---------|---------|-----------|
|----------|---------|---------|-----------|
|----------|---------|---------|-----------|
|----------|---------|---------|-----------|
|--7-------|--8------|--7------|--(7)------|
|----------|---------|---------|-----------|
|
|  Q     E    Q.        Q.        +Q     E
|----------|---------|---------|-----------|
|----------|---------|---------|-----------|
|----------|---------|---------|-----------|
|-10-------|-10------|-10------|-(10)------|
|--------7-|---------|---------|--------10-|
|----------|---------|---------|-----------|


   E  E E   E  E  E    +E   E  E    E  E E
|---------|-8-------|------------|--8----7----|
|---------|------10-|-(10)-------|------------|
|-----7-9-|----9----|---------10-|-----9------|
|--8------|---------|------10----|------------|
|---------|---------|------------|------------|
|---------|---------|------------|------------|
|
| +E  Q     Q.         +Q      E   +Q.
|---------|---------|------------|------------|
|---------|---------|------------|------------|
|---------|---------|------------|------------|
|---------|---------|------------|------------|
|-(7)-8---|-8-------|--(8)-----8-|-(8)--------|
|---------|---------|------------|------------|
|
|  E  Q     E  Q        Q      E   +Q    E
|---------|---------|------------|------------|
|---------|---------|------------|------------|
|---------|---------|------------|------------|
|-----8---|----8----|----------8-|-(8)---8----|
|-10------|-9-------|--10--------|------------|
|---------|---------|------------|------------|


   E  E  E    E  E E    Q    E     E  E  E
|----------|--8----7-|---------|---8-----7-|
|----------|---------|---------|-----------|
|-----9-10-|-----9---|--7---10-|------9----|
|--7-------|---------|---------|-----------|
|----------|---------|---------|-----------|
|----------|---------|---------|-----------|
|
|  Q.         Q.        Q.        +Q.
|----------|---------|---------|-----------|
|----------|---------|---------|-----------|
|----------|---------|---------|-----------|
|----------|---------|---------|-----------|
|--7-------|--8------|--7------|--(7)------|
|----------|---------|---------|-----------|
|
|  Q     E    Q.        Q.        +Q     E
|----------|---------|---------|-----------|
|----------|---------|---------|-----------|
|----------|---------|---------|-----------|
|-10-------|-10------|-10------|-(10)------|
|--------7-|---------|---------|--------10-|
|----------|---------|---------|-----------|


  E  E E    E  E  E    +E   E  E    E  E E
|--------|--8-------|------------|--8----7----|
|--------|-------10-|-(10)-------|------------|
|----7-9-|-----9----|---------10-|-----9------|
|-8------|----------|------10----|------------|
|--------|----------|------------|------------|
|--------|----------|------------|------------|
|
| Q.        Q.          Q.         +Q.
|--------|----------|------------|------------|
|--------|----------|------------|------------|
|--------|----------|------------|------------|
|--------|----------|------------|------------|
|-8------|-10-------|---8--------|-(8)--------|
|--------|----------|------------|------------|
|
| Q    E    Q.          Q.         +Q.
|--------|----------|------------|------------|
|--------|----------|------------|------------|
|--------|----------|------------|------------|
|-8------|--8-------|---8--------|-(8)--------|
|------9-|----------|------------|------------|
|--------|----------|------------|------------|


  E   E  E    E   E  E    E  E E    E  E  E
|----------|-----------|---------|----------|
|----------|-11--------|---------|-----8----|
|----10-11-|-----10-11-|-------8-|--------7-|
|-8--------|-----------|-11--8---|-10-------|
|----------|-----------|---------|----------|
|----------|-----------|---------|----------|
|
| Q.          Q.          Q.       +Q.
|----------|-----------|---------|----------|
|----------|-----------|---------|----------|
|----------|-----------|---------|----------|
|----------|-----------|---------|----------|
|-9--------|-11--------|--9------|-(9)------|
|----------|-----------|---------|----------|
|
| Q      E    Q.          Q.        E  E  E
|----------|-----------|---------|----------|
|----------|-----------|---------|----------|
|----------|-----------|---------|----------|
|-8--------|-10--------|--8------|--8--7----|
|--------9-|-----------|---------|-------10-|
|----------|-----------|---------|----------|


  E   E E    E   E  E    +E   E E    E   E  E
|---------|--8--10----|-----------|-10-----------|
|-------8-|--------10-|-(10)----8-|-----10-------|
|----10---|-----------|------10---|--------10----|
|-7-------|-----------|-----------|--------------|
|---------|-----------|-----------|--------------|
|---------|-----------|-----------|--------------|
|
| Q.         Q.           Q     E   +Q      E
|---------|-----------|-----------|--------------|
|---------|-----------|-----------|--------------|
|---------|-----------|---------3-|-(3)-----3----|
|---------|-----------|---5-----3-|-(3)-----3----|
|-9-------|-10--------|-----------|--------------|
|---------|-----------|---3-------|--------------|
|
| Q     E    Q.           Q.         Q.
|---------|-----------|-----------|--------------|
|---------|-----------|-----------|--------------|
|---------|-----------|-----------|--------------|
|-8-------|-10--------|-----------|--------------|
|-------8-|-----------|-----------|--------------|
|---------|-----------|-----------|--------------|


 12/8
  Gtr II
  W.                       H.      +Q   E +Q.
|------------------------|----------------------|
|------------------------|----------------------|
|------------------------|----------------------|
|------------------------|----------------------|
|------------------------|-8-------(8)--8-(8)---|
|-8----------------------|----------------------|
|
| H.      +Q.   +Q    E    H.      +Q   E +Q.
|------------------------|----------------------|
|------------------------|----------------------|
|------------------------|-3-------(3)--3-(3)---|
|-2-------(2)---(2)--(2)-|-3-------(3)--3-(3)---|
|-3-------(3)---(3)------|----------------------|
|---------------------3--|----------------------|
|
| W.                       W.
|------------------------|----------------------|
|------------------------|----------------------|
|------------------------|----------------------|
|------------------------|----------------------|
|-7----------------------|----------------------|
|------------------------|-6--------------------|


   Q    E  +H.      +Q.           Q.      H.      +Q.
|-------------------------------|------------------------|
|-------------------------------|------------------------|
|-------------------------------|------------------------|
|-10----------------------------|------------------------|
|-------------------------------|-8-------8-------(8)----|
|-------8--(8)------(8)---------|------------------------|
|
|  Q    E  +H.      +E   E   E    Q    E  H.      +Q.
|-------------------------------|------------------------|
|-------------------------------|------------------------|
|-------------------------------|-3---(3)-3-------(3)----|
|--2---(2)-(2)------(2)-(2)-(2)-|-3-------3-------(3)----|
|--3----3--(3)------(3)---------|------------------------|
|------------------------3---3--|------1-----------------|
|
|  W.                             W.
|-------------------------------|------------------------|
|-------------------------------|------------------------|
|-------------------------------|------------------------|
|-------------------------------|------------------------|
|--7----------------------------|------------------------|
|-------------------------------|-6----------------------|


  W.                       H.      +Q   E +Q.
|------------------------|----------------------|
|------------------------|----------------------|
|------------------------|----------------------|
|------------------------|----------------------|
|------------------------|-8-------(8)--8-(8)---|
|-8----------------------|----------------------|
|
| H.      +Q.   +Q    E    H.      +Q   E +Q.
|------------------------|----------------------|
|------------------------|----------------------|
|------------------------|-3-------(3)--3-(3)---|
|-2-------(2)---(2)--(2)-|-3-------(3)--3-(3)---|
|-3-------(3)---(3)------|----------------------|
|---------------------3--|----------------------|
|
| W.                       W.
|------------------------|----------------------|
|------------------------|----------------------|
|------------------------|----------------------|
|------------------------|----------------------|
|-7----------------------|----------------------|
|------------------------|-6--------------------|


   Q    E  +H.      +Q.           Q.      H.      +Q.
|-------------------------------|------------------------|
|-------------------------------|------------------------|
|-------------------------------|------------------------|
|-10----------------------------|------------------------|
|-------------------------------|-8-------8-------(8)----|
|-------8--(8)------(8)---------|------------------------|
|
|  Q    E  +H.      +E   E   E    Q    E  H.      +Q.
|-------------------------------|------------------------|
|-------------------------------|------------------------|
|-------------------------------|-3---(3)-3-------(3)----|
|--2---(2)-(2)------(2)-(2)-(2)-|-3-------3-------(3)----|
|--3----3--(3)------(3)---------|------------------------|
|------------------------3---3--|------1-----------------|
|
|  W.                             W.
|-------------------------------|------------------------|
|-------------------------------|------------------------|
|-------------------------------|------------------------|
|-------------------------------|------------------------|
|--7----------------------------|------------------------|
|-------------------------------|-6----------------------|


  Gtr I
   H.       +Q    E  +E   Q        H.       +Q.     +Q    E
|-------------------------------|---------------------------|
|----------------11-(11)--------|-10-------(10)----(10)-----|
|------------------------12-----|------------------------12-|
|-12-------(12)-----------------|---------------------------|
|-------------------------------|---------------------------|
|-------------------------------|---------------------------|
|
|  H.       +Q.      +Q      E     H.       +Q   E  +Q.
|-------------------------------|---------------------------|
|-------------------------------|---------------------------|
|-------------------------------|--3--------(3)--3--(3)-----|
|--2--------(2)------(2)----(2)-|--3--------(3)--3--(3)-----|
|--3--------(3)------(3)--------|---------------------------|
|----------------------------3--|---------------------------|


   W.                              +H.            +Q.    Q
|-------------------------------|-----------------------10-----|
|-13----------------------------|-(13)-----------(13)----------|
|-------------------------------|------------------------------|
|-------------------------------|------------------------------|
|-------------------------------|------------------------------|
|-------------------------------|------------------------------|
|
|  Q    E  +H.      +E   E   E      Q    E  H.          +Q.
|-------------------------------|------------------------------|
|-------------------------------|------------------------------|
|-------------------------------|---3---(3)-3-----------(3)----|
|--2---(2)-(2)------(2)-(2)-(2)-|---3-------3-----------(3)----|
|--3----3--(3)------(3)---------|------------------------------|
|------------------------3---3--|--------1---------------------|


   H.       +Q    E  +E   Q        H.       +Q    E  +E   Q
|-------------------------------|----------------------------|
|----------------10-(10)-11-----|-13-------(13)--10-(10)-----|
|-12-------(12)-----------------|------------------------10--|
|-------------------------------|----------------------------|
|-------------------------------|----------------------------|
|-------------------------------|----------------------------|
|
|  H.       +Q.      +Q      E     H.       +Q    E  +Q.
|-------------------------------|----------------------------|
|-------------------------------|----------------------------|
|-------------------------------|--3--------(3)---3--(3)-----|
|--2--------(2)------(2)----(2)-|--3--------(3)---3--(3)-----|
|--3--------(3)------(3)--------|----------------------------|
|----------------------------3--|----------------------------|


   W.                              +W.
|-10----------------------------|-(10)---------------------|
|-------------------------------|--------------------------|
|-------------------------------|--------------------------|
|-------------------------------|--------------------------|
|-------------------------------|--------------------------|
|-------------------------------|--------------------------|
|
|  Q    E  +H.      +E   E   E      Q    E  H.      +Q.
|-------------------------------|--------------------------|
|-------------------------------|--------------------------|
|-------------------------------|---3---(3)-3-------(3)----|
|--2---(2)-(2)------(2)-(2)-(2)-|---3-------3-------(3)----|
|--3----3--(3)------(3)---------|--------------------------|
|------------------------3---3--|--------1-----------------|


  Q.   E S S +E  +H.            E   E E E Q   Q.       E  E E
|-----------------------------|-------------------------------|
|-----------------------------|-------------------------------|
|--------8-9-(9)-(9)----------|-7-------------------------7-6-|
|-----------------------------|----10-8-----------------------|
|-----------------------------|---------9-7-------------------|
|-----------------------------|-------------------------------|
|
| H.             +Q.   +Q   E   H.           +Q    E  +Q.
|-----------------------------|-------------------------------|
|-----------------------------|-------------------------------|
|-----------------------------|-------------------------------|
|-----------------------------|-3------------(3)---3--(3)-----|
|-3--------------(3)---(3)----|-1------------(1)--(1)-(1)-----|
|-0--------------(0)---(0)--3-|-------------------------------|


   Q.       +E  S S E E  E E  E  E E    Q   E  +E  Q   Q.    S   S  E  E
|-----------------------------8--8---|----------------13-----8--10-------|
|-----------------------10-8---------|-----------------------------11----|
|-10-------(10)-7-----7------------7-|-10---9--(9)-7------------------11-|
|-----------------7-8----------------|-----------------------------------|
|------------------------------------|-----------------------------------|
|------------------------------------|-----------------------------------|
|
|  Q    E   +H.              +E  E E    Q   E   H.          +Q.
|------------------------------------|-----------------------------------|
|------------------------------------|-----------------------------------|
|------------------------------------|-----------------------------------|
|------------------------------------|--3-------3-----------(3)----------|
|--3----3---(3)--------------(3)-----|--1--(1)--1-----------(1)----------|
|--0---(0)--(0)--------------(0)-3-3-|------1----------------------------|


   Q   E  E E E +E   E  E  E  E  E    E  E E Q  E +E   Q      E  E  E
|-------------8-(8)----------------|----------------------------------|
|-10---8------------10-------------|-----8----------------------------|
|--------10-9----------------------|-10---------7-(7)-10---------7-10-|
|--------------------------7--8-10-|---------7----------------8-------|
|----------------------10----------|-------8--------------------------|
|----------------------------------|----------------------------------|
|
|  H.           +Q.       +Q     E    H.          +Q      E  +Q.
|----------------------------------|----------------------------------|
|----------------------------------|----------------------------------|
|----------------------------------|----------------------------------|
|----------------------------------|--3-----------(3)-----3--(3)------|
|--3------------(3)-------(3)------|--1-----------(1)----(1)-(1)------|
|--0------------(0)-------(0)----3-|----------------------------------|


                                                    |3-|
   Q   E   E  Q   E  E E  E   E  E    E  E  E   E   E  S  +S   S  E  E  E  +Q.
|---------10--8--------------------|-----------12-----13-(13)-12-15-13------------|
|-10--11---------10----------11-15-|-13-11-13------15------------------13-(13)----|
|-------------------10-7-----------|----------------------------------------------|
|----------------------------------|----------------------------------------------|
|------------------------10--------|----------------------------------------------|
|----------------------------------|----------------------------------------------|
|
|  Q   E  +H.            +E   E  E    Q     E   H.                         +Q.
|----------------------------------|----------------------------------------------|
|----------------------------------|----------------------------------------------|
|----------------------------------|----------------------------------------------|
|----------------------------------|--3---------3--------------------------(3)----|
|--3---3--(3)------------(3)-------|--1----(1)--1--------------------------(1)----|
|--0--(0)-(0)------------(0)--3--3-|--------1-------------------------------------|


 3/8
   E  E  E    E  E E    Q    E     E  E  E
|----------|--8----7-|---------|---8-----7-|
|----------|---------|---------|-----------|
|-----9-10-|-----9---|--7---10-|------9----|
|--7-------|---------|---------|-----------|
|----------|---------|---------|-----------|
|----------|---------|---------|-----------|
|
| Gtr III
|  Q.         Q.        Q.        +Q.
|----------|---------|---------|-----------|
|----------|---------|---------|-----------|
|----------|---------|---------|-----------|
|----------|---------|---------|-----------|
|--7-------|--8------|--7------|--(7)------|
|----------|---------|---------|-----------|
|
| Gtr IV
|  Q     E    Q.        Q.        +Q     E
|----------|---------|---------|-----------|
|----------|---------|---------|-----------|
|----------|---------|---------|-----------|
|-10-------|-10------|-10------|-(10)------|
|--------7-|---------|---------|--------10-|
|----------|---------|---------|-----------|


  E  E E    E  E  E    +E   E  E    E  E E
|--------|--8-------|------------|--8----7----|
|--------|-------10-|-(10)-------|------------|
|----7-9-|-----9----|---------10-|-----9------|
|-8------|----------|------10----|------------|
|--------|----------|------------|------------|
|--------|----------|------------|------------|
|
| Q.        Q.          Q.         +Q.
|--------|----------|------------|------------|
|--------|----------|------------|------------|
|--------|----------|------------|------------|
|--------|----------|------------|------------|
|-8------|-10-------|---8--------|-(8)--------|
|--------|----------|------------|------------|
|
| Q    E    Q.          Q.         +Q.
|--------|----------|------------|------------|
|--------|----------|------------|------------|
|--------|----------|------------|------------|
|-8------|--8-------|---8--------|-(8)--------|
|------9-|----------|------------|------------|
|--------|----------|------------|------------|


   E  E  E    E  E E    Q    E     E  E  E
|----------|--8----7-|---------|---8-----7-|
|----------|---------|---------|-----------|
|-----9-10-|-----9---|--7---10-|------9----|
|--7-------|---------|---------|-----------|
|----------|---------|---------|-----------|
|----------|---------|---------|-----------|
|
|  Q.         Q.        Q.        +Q.
|----------|---------|---------|-----------|
|----------|---------|---------|-----------|
|----------|---------|---------|-----------|
|----------|---------|---------|-----------|
|--7-------|--8------|--7------|--(7)------|
|----------|---------|---------|-----------|
|
|  Q     E    Q.        Q.        +Q     E
|----------|---------|---------|-----------|
|----------|---------|---------|-----------|
|----------|---------|---------|-----------|
|-10-------|-10------|-10------|-(10)------|
|--------7-|---------|---------|--------10-|
|----------|---------|---------|-----------|


   E  E E   E  E  E    +E   E  E    E  E E
|---------|-8-------|------------|--8----7----|
|---------|------10-|-(10)-------|------------|
|-----7-9-|----9----|---------10-|-----9------|
|--8------|---------|------10----|------------|
|---------|---------|------------|------------|
|---------|---------|------------|------------|
|
| +E  Q     Q.         +Q      E   +Q.
|---------|---------|------------|------------|
|---------|---------|------------|------------|
|---------|---------|------------|------------|
|---------|---------|------------|------------|
|-(7)-8---|-8-------|--(8)-----8-|-(8)--------|
|---------|---------|------------|------------|
|
|  E  Q     E  Q        Q      E   +Q    E
|---------|---------|------------|------------|
|---------|---------|------------|------------|
|---------|---------|------------|------------|
|-----8---|----8----|----------8-|-(8)---8----|
|-10------|-9-------|--10--------|------------|
|---------|---------|------------|------------|


   E  E  E    E  E E    Q    E     E  E  E
|----------|--8----7-|---------|---8-----7-|
|----------|---------|---------|-----------|
|-----9-10-|-----9---|--7---10-|------9----|
|--7-------|---------|---------|-----------|
|----------|---------|---------|-----------|
|----------|---------|---------|-----------|
|
|  Q.         Q.        Q.        +Q.
|----------|---------|---------|-----------|
|----------|---------|---------|-----------|
|----------|---------|---------|-----------|
|----------|---------|---------|-----------|
|--7-------|--8------|--7------|--(7)------|
|----------|---------|---------|-----------|
|
|  Q     E    Q.        Q.        +Q     E
|----------|---------|---------|-----------|
|----------|---------|---------|-----------|
|----------|---------|---------|-----------|
|-10-------|-10------|-10------|-(10)------|
|--------7-|---------|---------|--------10-|
|----------|---------|---------|-----------|


  E  E E    E  E  E    +E   E  E    E  E E
|--------|--8-------|------------|--8----7----|
|--------|-------10-|-(10)-------|------------|
|----7-9-|-----9----|---------10-|-----9------|
|-8------|----------|------10----|------------|
|--------|----------|------------|------------|
|--------|----------|------------|------------|
|
| Q.        Q.          Q.         +Q.
|--------|----------|------------|------------|
|--------|----------|------------|------------|
|--------|----------|------------|------------|
|--------|----------|------------|------------|
|-8------|-10-------|---8--------|-(8)--------|
|--------|----------|------------|------------|
|
| Q    E    Q.          Q.         +Q.
|--------|----------|------------|------------|
|--------|----------|------------|------------|
|--------|----------|------------|------------|
|-8------|--8-------|---8--------|-(8)--------|
|------9-|----------|------------|------------|
|--------|----------|------------|------------|


  E   E  E    E   E  E    E  E E    E  E  E
|----------|-----------|---------|----------|
|----------|-11--------|---------|-----8----|
|----10-11-|-----10-11-|-------8-|--------7-|
|-8--------|-----------|-11--8---|-10-------|
|----------|-----------|---------|----------|
|----------|-----------|---------|----------|
|
| Q.          Q.          Q.       +Q.
|----------|-----------|---------|----------|
|----------|-----------|---------|----------|
|----------|-----------|---------|----------|
|----------|-----------|---------|----------|
|-9--------|-11--------|--9------|-(9)------|
|----------|-----------|---------|----------|
|
| Q      E    Q.          Q.        E  E  E
|----------|-----------|---------|----------|
|----------|-----------|---------|----------|
|----------|-----------|---------|----------|
|-8--------|-10--------|--8------|--8--7----|
|--------9-|-----------|---------|-------10-|
|----------|-----------|---------|----------|


  E   E E    E   E  E    +E   E E    E   E  E
|---------|--8--10----|-----------|-10-----------|
|-------8-|--------10-|-(10)----8-|-----10-------|
|----10---|-----------|------10---|--------10----|
|-7-------|-----------|-----------|--------------|
|---------|-----------|-----------|--------------|
|---------|-----------|-----------|--------------|
|
| Q.         Q.           Q     E   +Q      E
|---------|-----------|-----------|--------------|
|---------|-----------|-----------|--------------|
|---------|-----------|---------3-|-(3)-----3----|
|---------|-----------|---5-----3-|-(3)-----3----|
|-9-------|-10--------|-----------|--------------|
|---------|-----------|---3-------|--------------|
|
| Q     E    Q.           Q.         Q.
|---------|-----------|-----------|--------------|
|---------|-----------|-----------|--------------|
|---------|-----------|-----------|--------------|
|-8-------|-10--------|-----------|--------------|
|-------8-|-----------|-----------|--------------|
|---------|-----------|-----------|--------------|


 12/8
  Gtr II
   H.       +Q.    +E   E  E    H.       +E   E  E   E   E  E    Q.       +E   E  E  E  E  E  E   E  E
|----------------------------|--------------------------------|---------------------17-18-20-17--18----|
|----------------------------|--------------------------------|---------------19-20-----------------20-|
|-14-------(14)---(14)-------|--------------------------------|----------------------------------------|
|----------------------17-15-|-14-------(14)-15-14------14----|----------------------------------------|
|----------------------------|----------------------17-----17-|-14-------(14)--------------------------|
|----------------------------|--------------------------------|----------------------------------------|
|
|  H.       +Q.    +Q      E    H.       +Q      E  +Q.          Q    E   +H.                +E   E  E
|----------------------------|--------------------------------|----------------------------------------|
|----------------------------|--------------------------------|----------------------------------------|
|----------------------------|--------------------------------|----------------------------------------|
|----------------------------|--3--------(3)-----3--(3)-------|----------------------------------------|
|--3--------(3)----(3)-------|--1--------(1)----(1)-(1)-------|--3----3---(3)----------------(3)-------|
|--0--------(0)----(0)-----3-|--------------------------------|--0---(0)--(0)----------------(0)--3--3-|


   +Q.       +E   S  S  S  S  S  S  S  S  S  S  S   S  S  S  S  S
|--------------------------------------------------------------17----|
|-(20)------(20)-----------------------------------15-18-15-16-------|
|----------------------------------15-------15-16--------------------|
|-------------------------15-16-17----16-17--------------------------|
|----------------15-16-17--------------------------------------------|
|--------------------------------------------------------------------|
|
|   Q    E    H.                               +Q.
|--------------------------------------------------------------------|
|--------------------------------------------------------------------|
|--------------------------------------------------------------------|
|---3---------3--------------------------------(3)-------------------|
|---1---(1)---1--------------------------------(1)-------------------|
|--------1-----------------------------------------------------------|


                          T
   H.       E   E  E  S   S  E  E    E   E  E  E  E  E  E   E  E   E   E  E
|-18-------18------------25-24-21-|-19---------------------23-24--23--22-21-|
|--------------21-18--------------|-----22-20-18-------20-------------------|
|--------------------20-----------|--------------20-18----------------------|
|---------------------------------|-----------------------------------------|
|---------------------------------|-----------------------------------------|
|---------------------------------|-----------------------------------------|
|
|  H.      +Q.       +Q         E    H.                +Q      E  +Q.
|---------------------------------|-----------------------------------------|
|---------------------------------|-----------------------------------------|
|---------------------------------|-----------------------------------------|
|---------------------------------|--3-----------------(3)-----3--(3)-------|
|--3-------(3)-------(3)----------|--1-----------------(1)----(1)-(1)-------|
|--0-------(0)-------(0)--------3-|-----------------------------------------|


                                                              |3-|          |3-|          |3-|
   E  E  E   Q.   E  S  S  S  S  E   E  E    +Q    E   +Q.    E  S  +S   S  E  S  +S   S  E  S  +S   S
|-------------------------22-23-24--25-24-|-(24)--22--(22)---25-24-(24)-20-20-----------------------20----|
|-------------------18-22-----------------|-----------------------------------22-(22)-18-22---------------|
|-21--------------------------------------|-------------------------------------------------19-(19)-------|
|----21-----------------------------------|---------------------------------------------------------------|
|-----------------------------------------|---------------------------------------------------------------|
|-----------------------------------------|---------------------------------------------------------------|
|
|  Q     E  +H.                 +E   E  E     Q    E    H.                        +Q.
|-----------------------------------------|---------------------------------------------------------------|
|-----------------------------------------|---------------------------------------------------------------|
|-----------------------------------------|---------------------------------------------------------------|
|-----------------------------------------|---3---------3-------------------------(3)---------------------|
|--3-----3--(3)-----------------(3)-------|---1---(1)---1-------------------------(1)---------------------|
|--0----(0)-(0)-----------------(0)--3--3-|--------1------------------------------------------------------|


   ~~~~~~~~~~~~~
   H.       +Q.    +E   E  E    E   E  E  E      E  E  +Q.       +E   E      E
|-------------------------22-|-24--25-27-27pb29-24-------------------27pb29-26-|
|-22-------(22)---(22)-22----|---------------------25-(25)------(25)-----------|
|----------------------------|-------------------------------------------------|
|----------------------------|-------------------------------------------------|
|----------------------------|-------------------------------------------------|
|----------------------------|-------------------------------------------------|
|
|  H.       +Q.    +Q      E    H.                     +Q    E   +Q.
|----------------------------|-------------------------------------------------|
|----------------------------|-------------------------------------------------|
|----------------------------|-------------------------------------------------|
|----------------------------|--3----------------------(3)---3---(3)-----------|
|--3--------(3)----(3)-------|--1----------------------(1)--(1)--(1)-----------|
|--0--------(0)----(0)-----3-|-------------------------------------------------|


                                                                                                  |3-|
   E  E  E   +E   E      E      E  E  E  E   Q      E      E      E   E   E  E  E      E  E  +E   E  S  E
|-25----24--(24)-27pb29-27pb28-27-25-24----------|-27pb29-27pb28-25-----------------------------------------|
|----27---------------------------------25--27---|-------------------26-----27-27pb28-25-22-(22)-18-17-16---|
|------------------------------------------------|-----------------------27---------------------------------|
|------------------------------------------------|----------------------------------------------------------|
|------------------------------------------------|----------------------------------------------------------|
|------------------------------------------------|----------------------------------------------------------|
|
|  Q     E   +H.                        +E   E E    Q             E   H.                     +Q.
|------------------------------------------------|----------------------------------------------------------|
|------------------------------------------------|----------------------------------------------------------|
|------------------------------------------------|----------------------------------------------------------|
|------------------------------------------------|--3-----------------3----------------------(3)------------|
|--3-----3---(3)------------------------(3)------|--1------------(1)--1----------------------(1)------------|
|--0----(0)--(0)------------------------(0)--3-3-|----------------1-----------------------------------------|


                                                                                  |3-|
   +Q    S  S  S  S  S  S  S  S  Q.    +E   E  E    Q    E  E  Q   +Q.       +E   E  S  +S   S
|-------------17-19-20-18----20-25----(25)-22-17-|-20---17-20-17--(17)------(17)------------17-|
|-(16)--18-20-------------19---------------------|-------------------------------20-20-(20)----|
|------------------------------------------------|---------------------------------------------|
|------------------------------------------------|---------------------------------------------|
|------------------------------------------------|---------------------------------------------|
|------------------------------------------------|---------------------------------------------|
|
|   H.                          +Q.    +Q      E    H.             +Q    E   +Q.
|------------------------------------------------|---------------------------------------------|
|------------------------------------------------|---------------------------------------------|
|------------------------------------------------|---------------------------------------------|
|------------------------------------------------|--3--------------(3)---3---(3)---------------|
|---3---------------------------(3)----(3)-------|--1--------------(1)--(1)--(1)---------------|
|---0---------------------------(0)----(0)-----3-|---------------------------------------------|


                                                              |3-|          |--3---|
  H. Q.  S   S  E  +S   S    E.  S  E   +S   S  E  S  +S   S  E      S  +S   S      E  +S   S  E  +S   S
|--------------------------|--------24--(24)-27-25-26-(26)-27-27pb28-27-(27)-27pb28-23-(23)-----------------|
|--------14--15-17-(17)-18-|-22--25---------------------------------------------------------25-27-(27)-23---|
|--------------------------|--------------------------------------------------------------------------------|
|--------------------------|--------------------------------------------------------------------------------|
|--------------------------|--------------------------------------------------------------------------------|
|--------------------------|--------------------------------------------------------------------------------|
|
|  Q    E  +H.        +E      E   E        Q      E    H.                  +Q.
|---------------------------------------|-------------------------------------------------------------------|
|---------------------------------------|-------------------------------------------------------------------|
|---------------------------------------|-------------------------------------------------------------------|
|---------------------------------------|--3-----------3-------------------(3)------------------------------|
|--3----3--(3)--------(3)---------------|--1-----(1)---1-------------------(1)------------------------------|
|--0---(0)-(0)--------(0)-----3---3-----|---------1---------------------------------------------------------|


 3/8
  Gtr I
   E  E  E    E  E E    Q    E     E  E  E
|----------|--8----7-|---------|---8-----7-|
|----------|---------|---------|-----------|
|-----9-10-|-----9---|--7---10-|------9----|
|--7-------|---------|---------|-----------|
|----------|---------|---------|-----------|
|----------|---------|---------|-----------|
|
| Gtr III
|  Q.         Q.        Q.        +Q.
|----------|---------|---------|-----------|
|----------|---------|---------|-----------|
|----------|---------|---------|-----------|
|----------|---------|---------|-----------|
|--7-------|--8------|--7------|--(7)------|
|----------|---------|---------|-----------|
|
| Gtr IV
|  Q     E    Q.        Q.        +Q     E
|----------|---------|---------|-----------|
|----------|---------|---------|-----------|
|----------|---------|---------|-----------|
|-10-------|-10------|-10------|-(10)------|
|--------7-|---------|---------|--------10-|
|----------|---------|---------|-----------|


  E  E E    E  E  E    +E   E  E    E  E E
|--------|--8-------|------------|--8----7----|
|--------|-------10-|-(10)-------|------------|
|----7-9-|-----9----|---------10-|-----9------|
|-8------|----------|------10----|------------|
|--------|----------|------------|------------|
|--------|----------|------------|------------|
|
| Q.        Q.          Q.         +Q.
|--------|----------|------------|------------|
|--------|----------|------------|------------|
|--------|----------|------------|------------|
|--------|----------|------------|------------|
|-8------|-10-------|---8--------|-(8)--------|
|--------|----------|------------|------------|
|
| Q    E    Q.          Q.         +Q.
|--------|----------|------------|------------|
|--------|----------|------------|------------|
|--------|----------|------------|------------|
|-8------|--8-------|---8--------|-(8)--------|
|------9-|----------|------------|------------|
|--------|----------|------------|------------|


   E  E  E    E  E E    Q    E     E  E  E
|----------|--8----7-|---------|---8-----7-|
|----------|---------|---------|-----------|
|-----9-10-|-----9---|--7---10-|------9----|
|--7-------|---------|---------|-----------|
|----------|---------|---------|-----------|
|----------|---------|---------|-----------|
|
|  Q.         Q.        Q.        +Q.
|----------|---------|---------|-----------|
|----------|---------|---------|-----------|
|----------|---------|---------|-----------|
|----------|---------|---------|-----------|
|--7-------|--8------|--7------|--(7)------|
|----------|---------|---------|-----------|
|
|  Q     E    Q.        Q.        +Q     E
|----------|---------|---------|-----------|
|----------|---------|---------|-----------|
|----------|---------|---------|-----------|
|-10-------|-10------|-10------|-(10)------|
|--------7-|---------|---------|--------10-|
|----------|---------|---------|-----------|


   E  E E   E  E  E    +E   E  E    E  E E
|---------|-8-------|------------|--8----7----|
|---------|------10-|-(10)-------|------------|
|-----7-9-|----9----|---------10-|-----9------|
|--8------|---------|------10----|------------|
|---------|---------|------------|------------|
|---------|---------|------------|------------|
|
| +E  Q     Q.         +Q      E   +Q.
|---------|---------|------------|------------|
|---------|---------|------------|------------|
|---------|---------|------------|------------|
|---------|---------|------------|------------|
|-(7)-8---|-8-------|--(8)-----8-|-(8)--------|
|---------|---------|------------|------------|
|
|  E  Q     E  Q        Q      E   +Q    E
|---------|---------|------------|------------|
|---------|---------|------------|------------|
|---------|---------|------------|------------|
|-----8---|----8----|----------8-|-(8)---8----|
|-10------|-9-------|--10--------|------------|
|---------|---------|------------|------------|


   E  E  E    E  E E    Q    E     E  E  E
|----------|--8----7-|---------|---8-----7-|
|----------|---------|---------|-----------|
|-----9-10-|-----9---|--7---10-|------9----|
|--7-------|---------|---------|-----------|
|----------|---------|---------|-----------|
|----------|---------|---------|-----------|
|
|  Q.         Q.        Q.        +Q.
|----------|---------|---------|-----------|
|----------|---------|---------|-----------|
|----------|---------|---------|-----------|
|----------|---------|---------|-----------|
|--7-------|--8------|--7------|--(7)------|
|----------|---------|---------|-----------|
|
|  Q     E    Q.        Q.        +Q     E
|----------|---------|---------|-----------|
|----------|---------|---------|-----------|
|----------|---------|---------|-----------|
|-10-------|-10------|-10------|-(10)------|
|--------7-|---------|---------|--------10-|
|----------|---------|---------|-----------|


  E  E E    E  E  E    +E   E  E    E  E E
|--------|--8-------|------------|--8----7----|
|--------|-------10-|-(10)-------|------------|
|----7-9-|-----9----|---------10-|-----9------|
|-8------|----------|------10----|------------|
|--------|----------|------------|------------|
|--------|----------|------------|------------|
|
| Q.        Q.          Q.         +Q.
|--------|----------|------------|------------|
|--------|----------|------------|------------|
|--------|----------|------------|------------|
|--------|----------|------------|------------|
|-8------|-10-------|---8--------|-(8)--------|
|--------|----------|------------|------------|
|
| Q    E    Q.          Q.         +Q.
|--------|----------|------------|------------|
|--------|----------|------------|------------|
|--------|----------|------------|------------|
|-8------|--8-------|---8--------|-(8)--------|
|------9-|----------|------------|------------|
|--------|----------|------------|------------|


  E   E  E    E   E  E    E  E E    E  E  E
|----------|-----------|---------|----------|
|----------|-11--------|---------|-----8----|
|----10-11-|-----10-11-|-------8-|--------7-|
|-8--------|-----------|-11--8---|-10-------|
|----------|-----------|---------|----------|
|----------|-----------|---------|----------|
|
| Q.          Q.          Q.       +Q.
|----------|-----------|---------|----------|
|----------|-----------|---------|----------|
|----------|-----------|---------|----------|
|----------|-----------|---------|----------|
|-9--------|-11--------|--9------|-(9)------|
|----------|-----------|---------|----------|
|
| Q      E    Q.          Q.        E  E  E
|----------|-----------|---------|----------|
|----------|-----------|---------|----------|
|----------|-----------|---------|----------|
|-8--------|-10--------|--8------|--8--7----|
|--------9-|-----------|---------|-------10-|
|----------|-----------|---------|----------|


  E   E E    E   E  E    +E   E E    E   E  E
|---------|--8--10----|-----------|-10-----------|
|-------8-|--------10-|-(10)----8-|-----10-------|
|----10---|-----------|------10---|--------10----|
|-7-------|-----------|-----------|--------------|
|---------|-----------|-----------|--------------|
|---------|-----------|-----------|--------------|
|
| Q.         Q.           Q     E   +Q      E
|---------|-----------|-----------|--------------|
|---------|-----------|-----------|--------------|
|---------|-----------|---------3-|-(3)-----3----|
|---------|-----------|---5-----3-|-(3)-----3----|
|-9-------|-10--------|-----------|--------------|
|---------|-----------|---3-------|--------------|
|
| Q     E    Q.           Q.         Q.
|---------|-----------|-----------|--------------|
|---------|-----------|-----------|--------------|
|---------|-----------|-----------|--------------|
|-8-------|-10--------|-----------|--------------|
|-------8-|-----------|-----------|--------------|
|---------|-----------|-----------|--------------|


  Gtr II
   E   Q     Q.      E       Q             E      Q
|-27--27----27------25------25------------25-----25------------|
|--------------------------------------------------------------|
|--------------------------------------------------------------|
|--------------------------------------------------------------|
|--------------------------------------------------------------|
|--------------------------------------------------------------|
|
|                    |-3-|          |3-|          |3-|
|  E   E  E  Q    E  E   S  +S   S  E  S  +S   S  E  S  +S   S
|-27--27-25-27---25-25--24-(24)-25-24-25-(25)-24-25-24-(24)-25-|
|--------------------------------------------------------------|
|--------------------------------------------------------------|
|--------------------------------------------------------------|
|--------------------------------------------------------------|
|--------------------------------------------------------------|
|
| Gtr III
|  H.               +Q.                   +Q             E
|--------------------------------------------------------------|
|--------------------------------------------------------------|
|--------------------------------------------------------------|
|--2----------------(2)-------------------(2)-----------(2)----|
|--3----------------(3)-------------------(3)------------1-----|
|--------------------------------------------------------------|


                                                                 Gtr V
   E   Q     Q.      E       Q             E      Q               Q.    +E   Q   +Q    E  +Q.         
|-27--27----27------25------25------------25-----25------------|----------------------13-(13)--------|
|--------------------------------------------------------------|------------15--(15)-----------------|
|--------------------------------------------------------------|-14----(14)--------------------------|
|--------------------------------------------------------------|-------------------------------------|
|--------------------------------------------------------------|-------------------------------------|
|--------------------------------------------------------------|-------------------------------------|
|
|                                                                Gtr II
|                    |-3-|          |3-|          |3-|
|  E   E  E  Q    E  E   S  +S   S  E  S  +S   S  E  S  +S   S    Q.    +E   Q    Q    E  +E   Q      
|-27--27-25-27---25-25--24-(24)-25-24-25-(25)-24-25-24-(24)-25-|-----------------17---13-(13)-15-----|
|--------------------------------------------------------------|------------15-----------------------|
|--------------------------------------------------------------|-14----(14)--------------------------|
|--------------------------------------------------------------|-------------------------------------|
|--------------------------------------------------------------|-------------------------------------|
|--------------------------------------------------------------|-------------------------------------|
|
|  H.               +Q              E     +Q.                     Q.     Q.      +Q.      +Q      E   
|--------------------------------------------------------------|-------------------------------------|
|--------------------------------------------------------------|-------------------------------------|
|--3----------------(3)-------------3-----(3)------------------|---------2-------(2)------(2)----(2)-|
|--3----------------(3)-------------3-----(3)------------------|--0----------------------------------|
|--------------------------------------------------------------|--2------3------------------------0--|
|--------------------------------------------------------------|-------------------------------------|


   W.                 Q.     +Q      E  +Q.    Q.        H.             Q.      Q.
|-------------------|----------------14-(14)---20------|-----------------------------------|
|-15----------------|-16-----(16)----------------------|-20-------------17------18---------|
|-------------------|----------------------------------|-----------------------------------|
|-------------------|----------------------------------|-----------------------------------|
|-------------------|----------------------------------|-----------------------------------|
|-------------------|----------------------------------|-----------------------------------|
|
|  W.                 Q.     +E   E  E   Q.    Q    E    Q.    +E   Q   E   Q   Q       E
|-------------------|--------------------21----20------|-----------------------------------|
|-15----------------|-16-----(16)-18-19-------------21-|-20----(20)-18--17--20--18------17-|
|-------------------|----------------------------------|-----------------------------------|
|-------------------|----------------------------------|-----------------------------------|
|-------------------|----------------------------------|-----------------------------------|
|-------------------|----------------------------------|-----------------------------------|
|
|  Q   E Q.   H.       Q   E  +H.               Q.        H.            +Q.     +E   E
|-------------------|----------------------------------|-----------------------------------|
|-------------------|----------------------------------|-----------------------------------|
|--3-----3----3-----|------3--(3)----------------------|-----------------------------------|
|--3---4-5----3-----|------3--(3)---------------4------|--2-------------(2)-----(2)-(2)----|
|-------------------|---------------------------6------|--3-------------(3)-----(3)--------|
|-------------------|----------------------------------|-----------------------------3-----|


   W.                             +H.                +Q    E  +Q.
|-17---------------------------|-(17)---------------(17)--17-(17)------------|
|------------------------------|---------------------------------------------|
|------------------------------|---------------------------------------------|
|------------------------------|---------------------------------------------|
|------------------------------|---------------------------------------------|
|------------------------------|---------------------------------------------|
|
|  W.                             +H.                +Q    E  +E   Q
|-17---------------------------|-(17)---------------(17)--17-(17)------------|
|------------------------------|----------------------------------17---------|
|------------------------------|---------------------------------------------|
|------------------------------|---------------------------------------------|
|------------------------------|---------------------------------------------|
|------------------------------|---------------------------------------------|
|
|  Q.    E   E  E +Q.   +E  Q      Q.    E   E   E   +Q.      +E   E   E
|------------------------------|---------------------------------------------|
|------------------------------|---------------------------------------------|
|--3------------------------3--|---3-------------2---(2)-----------2---------|
|--3----(3)-(3)-5-(5)---(5)-3--|---3----(3)-(3)-(3)--(3)------(3)-(3)-(3)----|
|------------2-----------------|-------------0-------------------------5-----|
|--------3---------------------|---------3-----------------------------------|


   W.                       +H.       E  E  E  E  E  E
|------------------------|------------------------------||
|-17---------------------|-(17)------------------------o||
|------------------------|--------------------17-20-----||
|------------------------|-----------------17-------18--||
|------------------------|--------------19-------------o||
|------------------------|-----------17-----------------||
|
|  W.                       +H.       E  E  E  E  E  E
|------------------------|------------------------------||
|-17---------------------|-(17)------------------------o||
|------------------------|---------------------5--8-----||
|------------------------|------------------5--------6--||
|------------------------|---------------7-------------o||
|------------------------|------------5-----------------||
|
|  Q.   H.      +Q   +E      H.       E  E  E  E  E  E
|------------------------|------------------------------||
|------------------------|-----------------------------o||
|--2----2-------(2)------|---3-----------------5--8-----||
|--2----2-------(2)--(2)-|---3--------7-----5--------6--||
|------------------------|---------------7-------------o||
|------------------------|------------5-----------------||


Suggest correction
Creating personal tab
Creating personal tab
You can edit any tab online and save it as your Personal.

You can edit, replace or remove any tab part or add personal notes – all changes will be seen only by you.

Personal tabs can be accessed anytime from any device, even offline.
Learn more »
Give kudos to tab author, rate the tab!
1 2 3 4 5
comments
print report bad tab
guest
You may want to rate the tab now too:
select rating
Wanna post a correction for this tab? Suggest correction