Oops, an error
Loading. Please wait.

Super Mario 64 - Final Bowser Theme tab

13,381 views 12 this week
no commentswrite comment
1 2 3 4 5
x 5
add to favorites
×
Save as Personal and add changes to this tab that will be seen only by you. Learn more ›
×
You can save this tab as Personal to edit and correct it or add notes. All changes will be seen only by you. Learn more »
launch autoscroll
font size
0
reset
how to read this tab
guitar tuner
edit
Autoscroll
slow
fast
+/-
esc
set tempo
stop
Author
Difficulty
    W                   E  E  E  H        E     E  E  E  H        E
E||-------------------|--------0--------------|-----------------------|
B||-------------------|--------1--4--------L--|-----------------------|
G||-------------------|-----2-----4--------L--|-----------------------|
D||-------------------|--2--------------------|--------2--1--------L--|
A||--0----------------|-----------------------|-----0--3--2--------L--|
E||-------------------|-----------------------|--0--------------------|

 W                   W                   E  E  E  H        E
-------------------|-------------------|--------0--------------|
-------------------|-------------------|--------1--4--------L--|
-------------------|-------------------|-----2-----4--------L--|
--L----------------|-------------------|--2--------------------|
--L----------------|--0----------------|-----------------------|
-------------------|-------------------|-----------------------|

 E  E  E  H        E     W                   H.           Q
-----------------------|-------------------|--------------------|
-----------0--------L--|--L----------------|---------------0----|
--------2--------------|-------------------|---------------1----|
--------2--1--------L--|--L----------------|---------------2----|
-----0--3--2--------L--|--L----------------|--0-----------------|
--0--------------------|-------------------|---------------0----|

            ^
 Q    E  E  Q    Q       W                   S S S S S S S S S S S S S S S S
-----------------------|-------------------|--------0-------------------------|
--1----3--1--0----L----|-------------------|----------4-----3-1-----1-0-----0-|
--2----2-----1----L----|-------------------|------2-------2-------2-------1---|
--2----3-----2----L----|-------------------|----2-------2-------2-------2-----|
--0----3-----2---------|-------------------|--0-------0-------0-------0-------|
------------------0----|--0----------------|------0-------0-------0-------0---|

 S S S S S S S S S S S S S S S S    S S S S S S S S S S S S S S S S
----------------------------------|----------------------5-----5-----|
------------------------0-1-----1-|--0-------0---0-3---5---5-----5---|
--2-----2-1-----1-2---2-------2---|------1-2---------5-------5-----5-|
------2-----0-2-----2-------2-----|----0-------0---------------------|
--0-3-----0-------0-------0-------|------------------0-------0-------|
------0-------0-------0-------0---|--4---0---4---0-------0-------0---|

 S S S S S S S S S S S S S S S S    E  E  E  E  E  E  E  E
------4-----4---------0-----0-----|--------------------------|
----3---3-----3-----1---1-----1---|-----3--1--1--0--3--1--1--|
--4-------4-----4-2-------2-----2-|--1--1--2--2--1--1--2--2--|
--------------------------0---1---|--2--2--3--1--2--2--3--1--|
--2-------2-------3---------------|--------------------------|
------0-------0-------0-----------|-----------------0--1--1--|

      ^    ^
 Q    Q    Q    S S S S    S S S S S S S S S S S S S S S S
-------0----4----0-2-3-4-|----5-4-5-6-5-4---0---------------|
-------0----0------------|----------------4---1-0-1-3-1-0---|
--1----1----1------------|--------------------------------1-|
--2----2----2------------|----------------------------------|
--2----2----2------------|--0-------------------------------|
--0----0----0------------|------------------0-------0-------|

 S S S S S S S S S S S S S S S S    E  E  E  E  E  E  E  E
----------------------------------|-----------------1--0--4--|
--------------------------0-3-0---|-----1--0--3--1--1--3--5--|
--2-----------------2-1-2-------1-|--2--2--1--4--2-----4--4--|
----2-1-2-3-2-1-------------------|--------------------------|
--0-------------2-3---------------|--0--0--0--0--0--0--------|
------------------0-------0-------|--------------------0--0--|

 S S S S S S S S S S S S S S S S    S S S S S S S S S S S S S S S S
--5-----0-------------------------|----------------------------------|
--5-------4-----3-1-----1-0-----0-|------------------------0-1-----1-|
--5---2-------2-------2-------1---|--2-----2-1-----1-2---2-------2---|
----2-------2-------2-------2-----|------2-----0-2-----2-------2-----|
--0-------0-------0-------0-------|--0-3-----0-------0-------0-------|
------0-------0-------0-------0---|------0-------0-------0-------0---|

 S S S S S S S S S S S S S S S S    S S S S S S S S S S S S S S S S
----------------------5-----5-----|------4-----4---------------------|
--0-------0---0-3---5---5-----5---|----3---3-----3-0-1-------1-------|
------1-2---------5-------5-----5-|--4-------4-----------2-------2---|
----0-------0---------------------|--------------------2---2---2---2-|
------------------0-------0-------|--2-------2-------0-------0-------|
--4---0---4---0-------0-------0---|------0-------0-------0-------0---|

 S S S S S S S S S S S S S S S S    S S S S S S S S S S S S S  S S S
------------------------0-5-----5-|--4-----4-7-----7-5-----5-8------8-|
----------0---3---1---1-----5-----|------3-----9---------5-----10-----|
--3---2---------1---2---------5---|----4---------7-----5----------9---|
----0---2---2---------------------|-----------------------------------|
--1---0-----------0-------0-------|------------------0-------0--------|
----------4---0-------------------|--0-------0------------------------|

 S S S S S S S S S S S S S S S S    S S S S S S S S S S S S S  S S S
--7-----7-4-------------0-5-----5-|--4-----4-7-----7-5-----5-8------8-|
----9-------3-0---1---1-----5-----|------3-----9---------5-----10-----|
------7---------1---2---------5---|----4---------7-----5----------9---|
----------------------------------|-----------------------------------|
------------------0---0---0---0---|------------------0---0---0----0---|
--0-------0-----------------------|--0---0---0---0--------------------|

       NH
 E     E   S  S S S S S S S S S S S    S S S S S S S S S S S S S S S S
--7--<>12--12-10-8-7-5-------1-------|----------4-------3-------0-------|
-----<>12----------------5-------1---|------3-------3-------2-------2---|
-----------------------5---5---2---2-|----4---4---4---4---3---3---0---0-|
-------------------------------------|--2-------------------------------|
---------------------0-------0-------|------------------0-------0-------|
--0----------------------------------|----------------------------------|

 S S S S S S S S S S S S S S S S
----------1-------1---------------|
------3-------3-------3---1---0---|
----2---2---2---2---0---0---0---0-|
--0-------------------------------|
------------------2-------2-------|
----------------------------------|

                  Optional. Play or skip to beat 3 of measure. 43
 S S S S S S S S |T T T T T T T T T T T T T T T T
--0-------0-------|--------------------------------|
------1-3---3-1-0-|----1-------1-------3-------0---|
----0-------------|--2---2---2---2---4---4---1---1-|
------------------|--------------------------------|
--3---------------|0-------0-------0-------0-------|
------------------|--------------------------------|

 T T T T T T T T T T T T T T T T T T T T T T T T T T T T T T T T
--------------0---------------------------------------5-----------|
------1-----1---1-----3-------0-------5-------5---------------5---|
----2---2-----------4---4---1---1---5---5---5---5---5---5---5---5-|
------------------------------------------------------------------|
--0-------0-------0-------0-------0-------0-------0-------0-------|
------------------------------------------------------------------|

 T T T T T T T T T T T T T T T T T T T T T T T T T T T T T T T T
------1-------0---------------------------------------------------|
----3---3---1---1-----3-------0-------1-------1-------3-------0---|
--------------------4---4---1---1---2---2---2---2---4---4---1---1-|
------------------------------------------------------------------|
----------------------------------0-------0-------0-------0-------|
--0-------0-------0-------0---------------------------------------|

 T T T T T T T T T T T T T T T T T T T T T T T T T T T T T T T T
--------------0---------------------------------------5-----------|
------1-----1---1-----3-------0-------5-------5---------------5---|
----2---2-----------4---4---1---1---5---5---5---5---5---5---5---5-|
------------------------------------------------------------------|
--0-------0-------0-------0-------0-------0-------0-------0-------|
------------------------------------------------------------------|

 T T T T T T T T T T T T T T T T T T T T T T T T T T T T T T T T
----------------------3---------------1-------1-------3-------0---|
------2-------2---------------2-----3---3---3---3---5---5---2---2-|
----0---0---0---0---0---0---0---0---------------------------------|
----------------------------------0-------0-------0-------0-------|
--0-------0-------0-------0---------------------------------------|
------------------------------------------------------------------|

 T T T T T T T T T T T T T T T T T T T T T T T T T T T T T T T T
------1-------5-------3-------0-------1-------1-------3-------5---|
----3---3---6---6---5---5---2---2---3---3---3---3---5---5---6---6-|
------------------------------------------------------------------|
--0-------0-------0-------0-------0-------0-------0-------0-------|
------------------------------------------------------------------|
------------------------------------------------------------------|

 T T T T T T T T T T T T T T T T T T T T T T T T T T T T T T T T
------6-------5-------3-------0-------1-------1-------3-------0---|
----8---8---6---6---5---5---2---2---3---3---3---3---5---5---2---2-|
------------------------------------------------------------------|
----------------------------------0-------0-------0-------0-------|
--0-------0-------0-------0---------------------------------------|
------------------------------------------------------------------|

 T T T T T T T T T T T T T T T T T T T T T T T T T T T T T T T T
------1-------5-------3-------0-------1-------1-------3-------5---|
----3---3---6---6---5---5---2---2---3---3---3---3---5---5---6---6-|
------------------------------------------------------------------|
--0-------0-------0-------0-------0-------0-------0-------0-------|
------------------------------------------------------------------|
------------------------------------------------------------------|

 T T T T T T T T T T T T T T T T T  T  T  T T  T  T  T T  T  T  T T  T  T  T
------6-------5-------6-------9--------10---------13---------12---------11----|
----8---8---6---6---8---8---8---8---10----10---13----13---12----12---11----11-|
------------------------------------------------------------------------------|
----------------------------------0----------0----------0---------------------|
--0-------0-------0-------0----------------------------------------0----------|
------------------------------------------------------------------------------|

 T  T  T  T T  T  T  T T  T  T  T T  T  T  T T  T  T  T T  T  T  T T  T  T  T T
-------10---------13---------12---------11------------10---------13---------12--
----10----10---13----13---12----12---11----11------10---------13---------12-----
------------------------------------------------10---------13---------12--------
--0----------0----------0---------------------0----------0----------0-----------
-----------------------------------0-------------------------------------------0
--------------------------------------------------------------------------------

 T  T  T  T T  T  T  T T  T  T  T T  T  T  T  E   E   E  E
----------10---------13---------12---------11-10--17--10--5--|
-------10---------13---------12---------11----10--17--10--5--|
----10---------13---------12---------11-------10--17--10--5--|
--0----------0----------0----------------------0-------0-----|
-----------------------------------0---------------0---------|
----------------------------------------------------------0--|

 End of optional section.
 E  E  E  E  S S S S S S S S
--1--5--2--4--5-----0---------|
--3--5--1--3----------4-----3-|
--2--5--2--4------2-------2---|
--0-----0-------2-------2-----|
-----0--------0-------0-------|
-----------0------0-------0---|

 S S S S S S S S S S S S S S S S    S S S S S S S S S S S S S S S S
----------------------------------|----------------------------------|
--1-----1-0-----0-----------------|--------0-1-----1-0-------0---0-3-|
------2-------1---2-----2-1-----1-|--2---2-------2-------1-2---------|
----2-------2---------2-----0-2---|----2-------2-------0-------0-----|
--0-------0-------0-3-----0-------|--0-------0-----------------------|
------0-------0-------0-------0---|------0-------0---4---0---4---0---|

 S S S S S S S S S S S S S S S S    S S S S S S S S E  E  E  E
------5-----5---------4-----4-----|------0-----0-----------------|
----5---5-----5-----3---3-----3---|----1---1-----1------3--1--1--|
--5-------5-----5-4-------4-----4-|--2-------2-----2-1--1--2--2--|
----------------------------------|----------0---1---2--2--3--1--|
--0-------0-------2-------2-------|--3---------------------------|
------0-------0-------0-------0---|------0-----------------------|

                  ^       ^
 E  E  E  E  Q    Q       Q    S S S S S S S S S S S S
-------------------0----|--4----0-2-3-4---5-4-5-6-5-4---|
--0--3--1--1-------0----|--0--------------------------4-|
--1--1--2--2--1----1----|--1----------------------------|
--2--2--3--1--2----2----|--2----------------------------|
--------------2----2----|--2------------0---------------|
-----0--1--1--0----0----|--0----------------------------|

 S S S S S S S S S S S S S S S S    S S S S S S S S E  E  E  E
--0-------------------------------|------------------------------|
----1-0-1-3-1-0-------------------|----------0-3-0------1--0--3--|
----------------1-2---------------|----2-1-2-------1-2--2--1--4--|
--------------------2-1-2-3-2-1---|------------------------------|
------------------0-------------2-|--3---------------0--0--0--0--|
--0-------0-----------------------|--0-------0-------------------|

                          ^
 E  E  E  E  Q    Q       H        H
-----1--0--4--5----0----|--------------------||
--1--1--3--5--5----0----|--1-----------------||
--2-----4--4--5----1----|--2-----------------||
------------------------|--2-----------------||
--0--0--------0---------|--0-----------------||
--------0--0-------0----|--------------------||


            
            
Suggest correction
Creating personal tab
Creating personal tab
You can edit any tab online and save it as your Personal.

You can edit, replace or remove any tab part or add personal notes – all changes will be seen only by you.

Personal tabs can be accessed anytime from any device, even offline.
Learn more »
comments
print report bad tab
guest
You may want to rate the tab now too:
select rating
Wanna post a correction for this tab? Suggest correction