Oops, an error
Loading. Please wait.

Super Mario Brothers - Second Level Tab

16 views 1 this week
no commentswrite comment
1 2 3 4 5
3 more votes to show rating
add to favorites
launch autoscroll
font size
0
reset
how to read this tab
guitar tuner
Autoscroll
slow
fast
+/-
esc
set tempo
stop
Help us to improve Ultimate-Guitar.com Take our survey!
×
Author
Difficulty
intermediate
Mario Bros. (NES). Second level guitar tab. 100% correct notes for guitar or bass.

E||----------------------|----------------------||
B||----------------------|----------------------||
G||----------------------|----------------------||
D||------10----7-----8---|------10----7-----8---||
A||----------------------|----------------------||
E||---8-----5-----6------|---8-----5-----6------||

E||----------------------|----------------------||
B||----------------------|----------------------||
G||------10----7-----8---|------10----7-----8---||
D||----------------------|----------------------||
A||---8-----5-----6------|---8-----5-----6------||
E||----------------------|----------------------||

E||--------------------------------------------------------||
B||--------------------------------------------------------||
G||--------------------------------------------------------||
D||--------------------------------------8-7-6-------------||
A||---6-5-4-3----6--5--------4---3-8-7-6-------6-----------||
E||--------------------4--3----------------------7-6-5-4---||
Suggest correction
Give kudos to tab author, rate the tab!
1 2 3 4 5
comments
print report bad tab
guest
You may want to rate the tab now too:
select rating
Wanna post a correction for this tab? Suggest correction