Oops, an error
Loading. Please wait.

Super Mario Brothers - Underground Tab

version 1
version 1

Whole song

Interactive

110,995 views 213 this week
23 commentsread comments
1 2 3 4 5
x 49
add to favorites
launch autoscroll
font size
0
reset
how to read this tab
guitar tuner
×
Best way to learn
"Super Mario Brothers - Underground"
Autoscroll
slow
fast
+/-
esc
set tempo
stop
e|-----------------------------------------------------------------|
B|-----------------------------------------------------------------|
G|----------------------------10---7---8---------------------------|
D|---10---7---8----------------------------------------------------|
A|--------------------------8----5---6-----------------------------|
E|-8----5---6------------------------------------------------------|
               ^                        ^
              repeat twice             repeat wice

e|-------------------------------------------------------------------------|
B|-------------------------------------------------------------------------|
G|---------------------------321-------------------------------------------|
D|---------------------4-3-2------1--0-------------------------------------|
A|-6-5-3---6-5-----4-3-----------------1-0---------------------------------|
E|-------------4-3-------------------------4-3-----------------------------|

   From tabbing it I think it is pretty accurate. the song is not that hard but I learn 
sound effects from super mario that are easy, you just need to use harmonics.


e|-----5---------5-----5-----------------------------------------------|
B|--5----*-5-5-5----*5---*---------------------------------------------|
G|---------------------------------------------------------------------|
D|---------------------------------------------------------------------|
A|---------------------------------------------------------------------|
E|---------------------------------------------------------------------|
    This makes the coin sound effect.Its accurate,but just use harmonics in it,and it 
sound right.



************************************

| * Harmonic

************************************
Suggest correction
comments
print report bad tab
23 comments total. Showing first comments.
0 reply
drevil814 50 Nov 14, 2004 07:00 PM

great tab!

+1 reply
fenderdude098 31 May 30, 2005 08:00 PM

e------------------
b-----------------
g-----------------
d-----------------
a-6-5-4--3-6-5----
E-------------4-3-

0 reply
Craigo 270 Dec 09, 2005 11:47 PM

Fucking Grrrrrrrrroooooooooooooovyyyyyyy tab mate. Nice work.

guest
You may want to rate the tab now too:
select rating
Wanna post a correction for this tab? Suggest correction