Oops, an error
Loading. Please wait.

Super Mario Brothers Theme Bass Tab

version 1
version 1

Whole song

Interactive

122,479 views 54 this week
13 commentsread comments
1 2 3 4 5
x 42
add to favorites
launch autoscroll
font size
0
reset
guitar tuner
×
Best way to learn
"Super Mario Brothers Theme"
Autoscroll
slow
fast
+/-
esc
set tempo
stop
here is the tab to the theme from the original nintendo game "super mario
bros." as written by Luis A-Solis.

the rhythm is hard to write in tablature, but if you can remember the song,
youll get it right away. the song is all in order, just follow it

beginning...

G|-----------------------0------------------------------------------|
D|------2-2---2----2------------------------------------------------|
A|-----------------3------------------------------------------------|
E|-----------------------------3------------------------------------|

G|----------------------------------------------0---------------------------|
D|----------------------------------------2-3-----2--3--0------0------------|
A|-----3-----------0--2--1--0----3-----------------------3------2-----------|
E|---------3---0------------------------------------------------------------|(x2)

G|----0-------------------------------------------0------------------555-------|
D|---------3--2--0--1--2------------------0-------3-2-0-1-2--------------------|
A|----------------------------0--2-3--0-3--------------------------------------|
E|-----------------------------------------------------------------------------|

G|---------0---------------------------------------------------------------|
D|--------------3--2--0--1--2------------------0-----1----0----------------|
A|---------------------------------0--2-3--0-3-------------------3---------|
E|-------------------------------------------------------------------------|

G|----------------------------------------------------------------------------|
D|-------------0--2----------------------0--2------------0-2------------------|
A|----33-3-3-------3--0------33-3-3--------33-3-3-------3---0-----------------|
E|----------------------------3-------------------------------------------3---|


G|-----------------------0----------|
D|------2-2---2----2----------------|
A|-----------------3----------------|
E|-----------------------------3----|
here you can repeat. if you want to end it, play this part below:

G|-----------------------------------2-22-0-----------------------|
D|---2----------------------33----------------3--2----------------|
A|-------3---0------0--2------2--------------------3--0-----------|
E|----------------3-------------------------------------------3---|

G|--------------------------------------------------------|
D|---2----------------------33--------3--332-0------------|
A|-------3---0------0--2------2-------------------3-------|
E|----------------3---------------------------------------|
Suggest correction
comments
print report bad tab
13 comments total. Showing first comments.
0 reply
lsd299 70 Nov 29, 2002 07:00 PM

not bad, i found it hard to follow until i heard the song again but its pretty accurate. add a fw notes here or there and it will be perfect

0 reply
warlock_bassist 10 Jan 07, 2007 06:55 PM

this is awesome mario is god :) well done

0 reply
MitalisT 30 Jun 29, 2007 04:42 AM

the sounds its good

guest
You may want to rate the tab now too:
select rating
Wanna post a correction for this tab? Suggest correction