Oops, an error
Loading. Please wait.

Super Mario Theme bass

version 1
version 1

Whole song

21,805 views 69 this week
3 commentsread comments
1 2 3 4 5
x 16
add to favorites
×
Save as Personal and add changes to this tab that will be seen only by you. Learn more ›
×
You can save this tab as Personal to edit and correct it or add notes. All changes will be seen only by you. Learn more »
launch autoscroll
font size
0
reset
guitar tuner
edit
Autoscroll
slow
fast
+/-
esc
set tempo
stop
Author
Difficulty
Song - The Super Mario Theme Song
Tabbed by - zaoXTreme

Tuning - EADG (standard)

 [Intro]
G|--9-9-9------9-12------|
D|---------10------------|
A|------------------10---|       x1
E|-----------------------|

 [Main Riff]
G|-------------------9-12-12-14-10-12-9-----------|
D|--10-5---5-7-6-5----------------------10-12-9---|
A|-------7----------------------------------------|     x2
E|------------------------------------------------|

 [2nd Riff]
G|--12-11-10-9--8--------------------12-11-10-9--8--15-1515--|
D|---------------------10-------12---------------------------|
A|---------------11-12----11-12------------------------------|
E|-----------------------------------------------------------|

G|--12-11-10-9--8-----------------------------------------|
D|---------------------10-------12---13-12-10-------------|          x2
A|---------------11-12----11-12---------------------------|
E|--------------------------------------------------------|

 [3rd Riff]
G|----------------9-------------------------9---------|
D|--10-10-10-1012----10--------10-10-10-1012----------|
A|---------------------12-10--------------------------|
E|----------------------------------------------------|

G|----------------9------------9-9-9----9-12--------|
D|--10-10-10-1012---10---------------10-------------|
A|---------------------12-10-----------------12-----|           x1
E|--------------------------------------------------|

 [Main Riff]
G|-------------------9-12-12-14-10-12-9-----------|
D|--10-5---5-7-6-5----------------------10-12-9---|
A|-------7----------------------------------------|     x1
E|------------------------------------------------|

 [4th Riff]
G|--9--------------10-10--------14-14-14-12-10-9--------------|
D|----10-----------------------------------------10-----------|
A|-------10--11-12-------12--12---------------------12-10-----|
E|------------------------------------------------------------|

G|--9--------------10-10--------12-12-12-10-9-------------|
D|----10--------------------------------------10----------|
A|-------10--11-12-------12--12------------------10-------|         x2
E|--------------------------------------------------12----|

 [5th Riff]
G|----------------9-------------------------9---------|
D|--10-10-10-1012----10--------10-10-10-1012----------|
A|---------------------12-10--------------------------|
E|----------------------------------------------------|

G|----------------9-------------9-9-9----9-12-------|
D|--10-10-10-1012---10----------------10------------|
A|---------------------12-10------------------12----|        x1
E|--------------------------------------------------|

            
            
Suggest correction
Creating personal tab
Creating personal tab
You can edit any tab online and save it as your Personal.

You can edit, replace or remove any tab part or add personal notes – all changes will be seen only by you.

Personal tabs can be accessed anytime from any device, even offline.
Learn more »
comments
print report bad tab
3 comments total.
0 reply
Haloquadratum 110 May 13, 2013 10:41 PM

I think you are missing a note at the end of the 4th riff.

+1 reply
jakemdm 86 Jan 11, 2014 04:46 PM

Intro
G--9-9-9------9-12------|
D---------10------------|
A------------------10---| x1
E-----------------------|

Main Riff
G-----------------------9-12-14-10-12-9----------|
D--10-----------------------------------10-12-9--|
A----10--10-12-11-10--10-------------------------| x2
E------12----------------------------------------|

2nd Riff
G--12-11-10-9--8--------------------12-11-10-9--8--17-1717--|
D---------------------10-------12---------------------------|
A---------------11-12----11-12------------------------------|
E-----------------------------------------------------------|

G--12-11-10-9--8-----------------------------------------|
D---------------------10-------12---13-12-10-------------| x2
A---------------11-12----11-12---------------------------|
E--------------------------------------------------------|

3rd Riff
G----------------9-------------------------9---------|
D--10-10-10-1012----10--------10-10-10-1012----------|
A---------------------12-10--------------------------|
E----------------------------------------------------|

G----------------9------------9-9-9----9-12--------|
D--10-10-10-1012---10---------------10-------------|
A---------------------12-10-----------------10-----| x1
E--------------------------------------------------|

Main Riff
G-----------------------9-12-14-10-12-9----------|
D--10-----------------------------------10-12-9--|
A----10--10-12-11-10--10-------------------------| x1
E------12----------------------------------------|

4th Riff
G--9--------------10-10--------14-14-14-12-10-9--------------|
D----10-----------------------------------------10-----------|
A-------10--11-12-------12--12---------------------12-10-----|
E------------------------------------------------------------|

G--9--------------10-10--------12-12-12-10-9-------------|
D----10--------------------------------------10----------|
A-------10--11-12-------12--12------------------10-------| x2
E--------------------------------------------------12----|

3rd Riff
G----------------9-------------------------9---------|
D--10-10-10-1012----10--------10-10-10-1012----------|
A---------------------12-10--------------------------|
E----------------------------------------------------|

G----------------9-------------9-9-9----9-12-------|
D--10-10-10-1012---10----------------10------------|
A---------------------12-10------------------10----| x1
E--------------------------------------------------|

4th Riff
G--9--------------10-10--------14-14-14-12-10-9--------------|
D----10-----------------------------------------10-----------|
A-------10--11-12-------12--12---------------------12-10-----|
E------------------------------------------------------------|

G--9--------------10-10--------10-10-10-9----------------|
D----10-----------------------------------12-10----------|
A-------10--11-12-------12--12------------------10-------| x1
E--------------------------------------------------8-----|

guest
You may want to rate the tab now too:
select rating
Wanna post a correction for this tab? Suggest correction