Oops, an error
Loading. Please wait.

Super Mario World - Overworld bass

2,708 views 27 this week
2 commentsread comments
1 2 3 4 5
1 last vote to show rating
add to favorites
×
Save as Personal and add changes to this tab that will be seen only by you. Learn more ›
×
You can save this tab as Personal to edit and correct it or add notes. All changes will be seen only by you. Learn more »
launch autoscroll
font size
0
reset
guitar tuner
edit
Autoscroll
slow
fast
+/-
esc
set tempo
stop
Author
Difficulty
Super Mario World - Overworld

Tabbed by: Ashy (XxThreeCheersxX)
E-mail: burdickash@gmail.com

Tuning: Standard

NOTE: This is the actual BASSLINE, not the melody!!! It seems there's been some confusion.

if you want me to tab the melody as well, just let me know.

Part I (intro)
G|---------------------------|
D|-3-----5-----3-----5-4~----|
A|----5-----3-----5----------|
E|---------------------------|

Part II
G|----2--3--4--2--1--0----------2--3--4--5-----0----------|
D|-3---------------------0-2-3---------------2---3---3----|
A|---------------------3-------------------3-------3------| x 2
E|--------------------------------------------------------|

Part III
G|-------------------------0---------------------------------------|
D|-------0-------------0-3---3-2---------0-3-2-------0-3-----0---2-|
A|-1-2-3---3-0-------3-----------3-1-0-1-------3-0-3-----3-1---3---|
E|-------------1-3-4-----------------------------------------------|

Part IV
G|--------------------------------------------------|
D|-3--3--1--1--0--0-------------------2-3-----3--3--|
A|-------------------4--4--3--------3------3--------|
E|--------------------------------------------------|

G|-------0-2-3-5-0---3-2-0---------------0-2-3-5-0---3-2-0--------|
D|-3-0-3-----------3-------3-0---3-3-0-3-----------3-------3-0-3--|
A|-----------------------------3----------------------------------|
E|----------------------------------------------------------------|

Happy playing!

| /  slide up
| \  slide down
| h  hammer-on
| p  pull-off
| ~  vibrato
| +  harmonic
| x  Mute note
===============================================================================

            
            
Suggest correction
Creating personal tab
Creating personal tab
You can edit any tab online and save it as your Personal.

You can edit, replace or remove any tab part or add personal notes – all changes will be seen only by you.

Personal tabs can be accessed anytime from any device, even offline.
Learn more »
Give kudos to tab author, rate the tab!
1 2 3 4 5
comments
print report bad tab
2 comments total.
0 reply
JelleAwEsOmE 64 Jan 15, 2016 08:47 AM

this is not at all a variation of the melody of this song, what we are all looking for. If that's not the case that say that.

guest
You may want to rate the tab now too:
select rating
Wanna post a correction for this tab? Suggest correction