Oops, an error
Loading. Please wait.

Super Smash Brothers Melee - Hyrule tab

3,400 views 1 this week
3 commentsread comments
1 2 3 4 5
1 last vote to show rating
add to favorites
×
Save as Personal and add changes to this tab that will be seen only by you. Learn more ›
×
You can save this tab as Personal to edit and correct it or add notes. All changes will be seen only by you. Learn more »
launch autoscroll
font size
0
reset
how to read this tab
guitar tuner
edit
Autoscroll
slow
fast
+/-
esc
set tempo
stop
Author
Gtr I (E A D G B E) - 'Melody'
Gtr II (E A D G B E) - 'Harmony'

Exported from PTEditor, just wanted to share it here. enjoy!

  Q=156
 4/4
  Gtr I
  E E +E  E +E  E +Q     Q.   E +Q   Q
|-3-3-(3)-3-(3)-3-(3)--|-6----5-(5)--4--|
|----------------------|----------------|
|----------------------|----------------|
|----------------------|----------------|
|----------------------|----------------|
|----------------------|----------------|
|
| Gtr II
| E E +E  E +E  E +Q     Q.   E +Q   Q
|----------------------|-1----0-(0)-----|
|-3-3-(3)-3-(3)-3-(3)--|-------------4--|
|----------------------|----------------|
|----------------------|----------------|
|----------------------|----------------|
|----------------------|----------------|


  H       +E  E E  E    Q.      E  +Q     Q
|-3-------(3)-5-6-10-|-11----------------11---|
|--------------------|---------11-(11)--------|
|--------------------|------------------------|
|--------------------|------------------------|
|--------------------|------------------------|
|--------------------|------------------------|
|
| E E E E  E  E E  E    E  E E  E   E  E  E E
|--------------------|------------------------|
|-3-----3-------3----|--4-------4---------4---|
|---3------3-------3-|-----3--------3-------3-|
|-----5-------5------|-------5---------5------|
|--------------------|------------------------|
|--------------------|------------------------|


   Q.      E  +Q     Q      Q    E  E  +E   E  +Q
|-12----------------12---|-11---15-13-(13)-11-(11)---|
|---------11-(11)--------|---------------------------|
|------------------------|---------------------------|
|------------------------|---------------------------|
|------------------------|---------------------------|
|------------------------|---------------------------|
|
|  E  E E  E   E  E  E E    E E  E  E   E   E   E  E
|------------------------|---------------------------|
|--5-------5---------5---|--4-------4-----------4----|
|-----3--------3-------3-|----3---------3----------3-|
|-------5---------5------|-------5----------5--------|
|------------------------|---------------------------|
|------------------------|---------------------------|


   H        +E   E  E  E    Q.      E  +Q     Q
|---------------------10-|-11----------------11----|
|---------------10-11----|---------11-(11)---------|
|-12-------(12)----------|-------------------------|
|------------------------|-------------------------|
|------------------------|-------------------------|
|------------------------|-------------------------|
|
|  E E E E   E   E  E  E    E  E E  E   E  E  E E
|------------------------|-------------------------|
|--3-----3----------3----|--4-------4---------4----|
|----3-------3---------3-|-----3--------3-------3--|
|------5---------5-------|-------5---------5-------|
|------------------------|-------------------------|
|------------------------|-------------------------|


   Q.      E  +Q     Q      Q    E  E  +E   E  +Q
|-12----------------12---|-11---15-13-(13)-11-(11)---|
|---------11-(11)--------|---------------------------|
|------------------------|---------------------------|
|------------------------|---------------------------|
|------------------------|---------------------------|
|------------------------|---------------------------|
|
|  E  E E  E   E  E  E E    E E  E  E   E   E   E  E
|------------------------|---------------------------|
|--5-------5---------5---|--4-------4-----------4----|
|-----3--------3-------3-|----3---------3----------3-|
|-------5---------5------|-------5----------5--------|
|------------------------|---------------------------|
|------------------------|---------------------------|


   E  E  +E   E  +E   E Q    +Q   Q  H
|-10-10-(10)-10-(10)-10-8--|-(8)----------|
|--------------------------|--------------|
|--------------------------|--------------|
|--------------------------|--------------|
|--------------------------|--------------|
|--------------------------|--------------|
|
|  E  E  +E   E  +E   E Q    +Q   Q  H
|--2--2--(2)--2--(2)--2-2--|-(2)----------|
|--------------------------|--------------|
|--------------------------|--------------|
|--------------------------|--------------|
|--------------------------|--------------|
|--------------------------|--------------|


   E  E  +E   E  +E   E  Q     +Q   Q  H
|-10-10-(10)-10-(10)-10-11--|-(11)----------|
|---------------------------|---------------|
|---------------------------|---------------|
|---------------------------|---------------|
|---------------------------|---------------|
|---------------------------|---------------|
|
|  E  E  +E   E  +E   E  Q     +Q   Q  H
|--2--2--(2)--2--(2)--2--2--|--(2)----------|
|---------------------------|---------------|
|---------------------------|---------------|
|---------------------------|---------------|
|---------------------------|---------------|
|---------------------------|---------------|


   E  E  +E   E  +E   E Q    +Q   Q  H
|-10-10-(10)-10-(10)-10-8--|-(8)----------|
|--------------------------|--------------|
|--------------------------|--------------|
|--------------------------|--------------|
|--------------------------|--------------|
|--------------------------|--------------|
|
|  E  E  +E   E  +E   E Q    +Q   Q  H
|--2--2--(2)--2--(2)--2-2--|-(2)----------|
|--------------------------|--------------|
|--------------------------|--------------|
|--------------------------|--------------|
|--------------------------|--------------|
|--------------------------|--------------|


   E  E  +E   E  +E   E  Q     +Q.    E  +Q    Q
|-10-10-(10)-10-(10)-10-13--|-(13)---11-(11)--10--|
|---------------------------|---------------------|
|---------------------------|---------------------|
|---------------------------|---------------------|
|---------------------------|---------------------|
|---------------------------|---------------------|
|
|  E  E  +E   E  +E   E  Q     +Q.    E  +Q    Q
|--2--2--(2)--2--(2)--2--2--|--(2)----2--(2)---2--|
|---------------------------|---------------------|
|---------------------------|---------------------|
|---------------------------|---------------------|
|---------------------------|---------------------|
|---------------------------|---------------------|


  H       +E   E  E  E    Q.      E  +Q     Q
|-------------------10-|-11----------------11----|
|-8-------(8)-10-11----|---------11-(11)---------|
|----------------------|-------------------------|
|----------------------|-------------------------|
|----------------------|-------------------------|
|----------------------|-------------------------|
|
| E E E E  E   E  E  E    E  E E  E   E  E  E E
|----------------------|-------------------------|
|-3-----3---------3----|--4-------4---------4----|
|---3------3---------3-|-----3--------3-------3--|
|-----5--------5-------|-------5---------5-------|
|----------------------|-------------------------|
|----------------------|-------------------------|


   Q.      E  +Q     Q      Q    E  E  +E   E  +Q
|-12----------------12---|-11---15-13-(13)-11-(11)---|
|---------11-(11)--------|---------------------------|
|------------------------|---------------------------|
|------------------------|---------------------------|
|------------------------|---------------------------|
|------------------------|---------------------------|
|
|  E  E E  E   E  E  E E    E E  E  E   E   E   E  E
|------------------------|---------------------------|
|--5-------5---------5---|--4-------4-----------4----|
|-----3--------3-------3-|----3---------3----------3-|
|-------5---------5------|-------5----------5--------|
|------------------------|---------------------------|
|------------------------|---------------------------|


   H        +E   E  E  E    Q.      E  +Q     Q
|---------------------10-|-11----------------11----|
|---------------10-11----|---------11-(11)---------|
|-12-------(12)----------|-------------------------|
|------------------------|-------------------------|
|------------------------|-------------------------|
|------------------------|-------------------------|
|
|  E E E E   E   E  E  E    E  E E  E   E  E  E E
|------------------------|-------------------------|
|--3-----3----------3----|--4-------4---------4----|
|----3-------3---------3-|-----3--------3-------3--|
|------5---------5-------|-------5---------5-------|
|------------------------|-------------------------|
|------------------------|-------------------------|


   Q.      E  +Q     Q      Q    E  E  +E   E  +Q
|-12----------------12---|-11---15-13-(13)-11-(11)---|
|---------11-(11)--------|---------------------------|
|------------------------|---------------------------|
|------------------------|---------------------------|
|------------------------|---------------------------|
|------------------------|---------------------------|
|
|  E  E E  E   E  E  E E    E E  E  E   E   E   E  E
|------------------------|---------------------------|
|--5-------5---------5---|--4-------4-----------4----|
|-----3--------3-------3-|----3---------3----------3-|
|-------5---------5------|-------5----------5--------|
|------------------------|---------------------------|
|------------------------|---------------------------|


   E  E  E  E  +E   E  Q      E  E  E  E  +E  E Q
|--------------------------|-------------------------|
|-13-------13-(13)-11-10---|-10-------10-(10)-8-7----|
|----14-15-----------------|----11-12----------------|
|--------------------------|-------------------------|
|--------------------------|-------------------------|
|--------------------------|-------------------------|
|
|  E  E  E  E   Q      E E    E  E  E  E   Q    E E
|--2--------2----------2---|--2--------2--------2----|
|-----1---------1--------1-|-----1---------1------1--|
|--------2-----------------|--------2----------------|
|--------------------------|-------------------------|
|--------------------------|-------------------------|
|--------------------------|-------------------------|


   E  E  E  E  +E   E  Q      E  E  E  E  +E   E  Q
|-13-----------------------|--------------------------|
|----13-15-16-(16)-15-13---|-13----11-13-(13)-15-16---|
|--------------------------|----13--------------------|
|--------------------------|--------------------------|
|--------------------------|--------------------------|
|--------------------------|--------------------------|
|
|  E  E  E  E   E   E  E E    E  E  E  E   E   E  E E
|--------1----------1------|--------1----------1------|
|-----1---------1--------1-|-----1---------1--------1-|
|--1--------1----------1---|--1--------1----------1---|
|--------------------------|--------------------------|
|--------------------------|--------------------------|
|--------------------------|--------------------------|


   E  E  E  E  +E   E  Q      E  E  E  E  +E   E  Q
|--------------------------|---------------------------|
|--------------------------|---------------------------|
|-17-----------------------|---------------------------|
|----19-20-22-(22)-20-19---|-19------------------------|
|--------------------------|----21-22-24-(24)-22-21----|
|--------------------------|---------------------------|
|
|  E  E  E  E   Q      E E    E  E  E  E   Q      E E
|--2--------2----------2---|--2--------2----------2----|
|-----1---------1--------1-|-----1---------1--------1--|
|--------2-----------------|--------2------------------|
|--------------------------|---------------------------|
|--------------------------|---------------------------|
|--------------------------|---------------------------|


   E  E  +E   E  +Q   Q     E  E  +E   E  +E   E  +E   E
|------------------------|-------------------------------|
|------------------------|-------------------------------|
|------------------------|----------------------------17-|
|------------------------|--------------------19-(19)----|
|------------------------|------------21-(21)------------|
|-22-22-(22)-23-(23)-----|-22-22-(22)--------------------|
|
|  E  E  +E   E  +Q   Q     E  E  +E   E  +E   E  +E   E
|------------------------|-----------------------------2-|
|------------------------|---------------------3--(3)----|
|--2--2--(2)--2--(2)-----|--2--2--(2)--2--(2)------------|
|------------------------|-------------------------------|
|------------------------|-------------------------------|
|------------------------|-------------------------------|


   H                E    E    +E     E
|----------------------------------------|
|-15--------------------13---(13)---11---|
|----------------------------------------|
|----------------------------------------|
|----------------------------------------|
|----------------------------------------|
|
|  S S S S S S S S  S S  S S   S  S  S S
|--------3-6-------------------6---------|
|------3-----8-------------8------8------|
|--0-3---------7---------7-----------7---|
|----------------8----8----------------8-|
|------------------10--------------------|
|----------------------------------------|


   E.      S  +S   E.      E.      S  +S   E.
|-------------------------------------------------|
|-10------11-(11)-13------15------16-(16)-18------|
|-------------------------------------------------|
|-------------------------------------------------|
|-------------------------------------------------|
|-------------------------------------------------|
|
|  S  S S  S   S   S  S S  S  S S  S   S   S  S S
|--------------6-----------------------6----------|
|----------8-------8---------------8-------8------|
|-------7-------------7---------7-------------7---|
|-----8-----------------8-----8-----------------8-|
|-10----------------------10----------------------|
|-------------------------------------------------|


   H                  E     E    +E     E
|--------------------------------------------|
|-18-----------------------16---(16)---15----|
|--------------------------------------------|
|--------------------------------------------|
|--------------------------------------------|
|--------------------------------------------|
|
|  S S S S S S  S  S  S  S  S S   S  S  S  S
|--------4-8----------------------8----------|
|------6-----9----------------9------9-------|
|----5---------10----------10----------10----|
|--6--------------10----10----------------10-|
|--------------------11----------------------|
|--------------------------------------------|


   E.        S  +S   E.        E.        S  +S   E.
|---------------------------------------------------------|
|-16--------15-(15)-13--------15--------16-(16)-18--------|
|---------------------------------------------------------|
|---------------------------------------------------------|
|---------------------------------------------------------|
|---------------------------------------------------------|
|
|  S   S  S  S   S   S   S  S  S   S  S  S   S   S   S  S
|----------------8---------------------------8------------|
|------------9-------9-------------------9-------9--------|
|--------10-------------10-----------10-------------10----|
|-----10-------------------10-----10-------------------10-|
|-11--------------------------11--------------------------|
|---------------------------------------------------------|


   H                E    E    +E     E
|----------------------------------------|
|-20-------------------------------------|
|----------------------------------------|
|----------------------------------------|
|-----------------------22---(22)---24---|
|----------------------------------------|
|
|  S S S S S S S S  S S  S S   S  S  S S
|----------7-------------------7---------|
|--------8---8-------------8------8------|
|------9-------9---------9-----------9---|
|----9-----------9----9----------------9-|
|-10---------------10--------------------|
|----------------------------------------|


   E.      S  +S   E.      E.      S  +S   E.
|-------------------------------------------------|
|-----------------------------------------20------|
|-------------------------21------22-(22)---------|
|-21------22-(22)-24------------------------------|
|-------------------------------------------------|
|-------------------------------------------------|
|
|  S  S S  S   S   S  S S  S  S S  S   S   S  S S
|--------------7-----------------------7----------|
|----------8-------8---------------8-------8------|
|-------9-------------9---------9-------------9---|
|-----9-----------------9-----9-----------------9-|
|-10----------------------10----------------------|
|-------------------------------------------------|


   H                    E     E    +E     E
|----------------------------------------------|
|-18-------------------------16---(16)---15----|
|----------------------------------------------|
|----------------------------------------------|
|----------------------------------------------|
|----------------------------------------------|
|
|  S  S  S S S S  S  S  S  S  S S   S  S  S  S
|------------8----------------------8----------|
|----------9---9----------------9------9-------|
|-------10-------10----------10----------10----|
|----10-------------10----10----------------10-|
|-11-------------------11----------------------|
|----------------------------------------------|


   E.        S  +S   E.        E.        S  +S   E.
|---------------------------------------------------------|
|-16--------15-(15)-13--------15--------16-(16)-18--------|
|---------------------------------------------------------|
|---------------------------------------------------------|
|---------------------------------------------------------|
|---------------------------------------------------------|
|
|  S   S  S  S   S   S   S  S  S   S  S  S   S   S   S  S
|----------------8---------------------------8------------|
|------------9-------9-------------------9-------9--------|
|--------10-------------10-----------10-------------10----|
|-----10-------------------10-----10-------------------10-|
|-11--------------------------11--------------------------|
|---------------------------------------------------------|


   H                E    E    +E     E
|----------------------------------------|
|----------------------------------------|
|-19--------------------17---(17)---15---|
|----------------------------------------|
|----------------------------------------|
|----------------------------------------|
|
|  S S S S S S S S  S S  S S   S  S  S S
|----------6-------------------6---------|
|--------8---8-------------8------8------|
|------7-------7---------7-----------7---|
|----8-----------8----8----------------8-|
|-10---------------10--------------------|
|----------------------------------------|


   E.      S  +S   E.      E.      S  +S   E.
|-------------------------------------------------|
|-----------------13------15------16-(16)-18------|
|-14------15-(15)---------------------------------|
|-------------------------------------------------|
|-------------------------------------------------|
|-------------------------------------------------|
|
|  S  S S  S   S   S  S S  S  S S  S   S   S  S S
|--------------6-----------------------6----------|
|----------8-------8---------------8-------8------|
|-------7-------------7---------7-------------7---|
|-----8-----------------8-----8-----------------8-|
|-10----------------------10----------------------|
|-------------------------------------------------|


   H                  E     E    +E     E
|--------------------------------------------|
|-18-----------------------16---(16)---15----|
|--------------------------------------------|
|--------------------------------------------|
|--------------------------------------------|
|--------------------------------------------|
|
|  S S S S S S  S  S  S  S  S S   S  S  S  S
|--------4-8----------------------8----------|
|------6-----9----------------9------9-------|
|----5---------10----------10----------10----|
|--6--------------10----10----------------10-|
|--------------------11----------------------|
|--------------------------------------------|


   E.        S  +S   E.        E.        S  +S   E.
|---------------------------------------------------------|
|-16--------15-(15)-13--------15--------16-(16)-18--------|
|---------------------------------------------------------|
|---------------------------------------------------------|
|---------------------------------------------------------|
|---------------------------------------------------------|
|
|  S   S  S  S   S   S   S  S  S   S  S  S   S   S   S  S
|----------------8---------------------------8------------|
|------------9-------9-------------------9-------9--------|
|--------10-------------10-----------10-------------10----|
|-----10-------------------10-----10-------------------10-|
|-11--------------------------11--------------------------|
|---------------------------------------------------------|


   H                E    E    +E     E
|----------------------------------------|
|-20-------------------------------------|
|----------------------------------------|
|----------------------------------------|
|-----------------------22---(22)---24---|
|----------------------------------------|
|
|  S S S S S S S S  S S  S S   S  S  S S
|----------7-------------------7---------|
|--------8---8-------------8------8------|
|------9-------9---------9-----------9---|
|----9-----------9----9----------------9-|
|-10---------------10--------------------|
|----------------------------------------|


   E.      S  +S   E.      E.      S  +S   E.
|-------------------------------------------------|
|-----------------------------------------20------|
|-------------------------21------22-(22)---------|
|-21------22-(22)-24------------------------------|
|-------------------------------------------------|
|-------------------------------------------------|
|
|  S  S S  S   S   S  S S  S  S S  S   S   S  S S
|--------------7-----------------------7----------|
|----------8-------8---------------8-------8------|
|-------9-------------9---------9-------------9---|
|-----9-----------------9-----9-----------------9-|
|-10----------------------10----------------------|
|-------------------------------------------------|


   H                    E     E    +E     E
|----------------------------------------------|
|-18-------------------------16---(16)---15----|
|----------------------------------------------|
|----------------------------------------------|
|----------------------------------------------|
|----------------------------------------------|
|
|  S  S  S S S S  S  S  S  S  S S   S  S  S  S
|------------8----------------------8----------|
|----------9---9----------------9------9-------|
|-------10-------10----------10----------10----|
|----10-------------10----10----------------10-|
|-11-------------------11----------------------|
|----------------------------------------------|


   E.        S  +S   E.        E.        S  +S   E.
|---------------------------------------------------------|
|-16--------15-(15)-13--------15--------16-(16)-18--------|
|---------------------------------------------------------|
|---------------------------------------------------------|
|---------------------------------------------------------|
|---------------------------------------------------------|
|
|  S   S  S  S   S   S   S  S  S   S  S  S   S   S   S  S
|----------------8---------------------------8------------|
|------------9-------9-------------------9-------9--------|
|--------10-------------10-----------10-------------10----|
|-----10-------------------10-----10-------------------10-|
|-11--------------------------11--------------------------|
|---------------------------------------------------------|


   E  E  +E   E  +E   E  Q     +Q   Q  H
|---------------------------|---------------|
|---------------------------|---------------|
|-19-19-(19)-19-(19)-19-17--|-(17)----------|
|---------------------------|---------------|
|---------------------------|---------------|
|---------------------------|---------------|
|
|  E  E  +E   E  +E   E  Q     +Q   Q  H
|---------------------------|---------------|
|---------------------------|---------------|
|-11-11-(11)-11-(11)-11-11--|-(11)----------|
|---------------------------|---------------|
|---------------------------|---------------|
|---------------------------|---------------|


   E  E  +E   E  +E   E  Q     +Q   Q  H
|---------------------------|---------------|
|-15-15-(15)-15-(15)-15-16--|-(16)----------|
|---------------------------|---------------|
|---------------------------|---------------|
|---------------------------|---------------|
|---------------------------|---------------|
|
|  E  E  +E   E  +E   E  Q     +Q   Q  H
|---------------------------|---------------|
|---------------------------|---------------|
|-11-11-(11)-11-(11)-11-11--|-(11)----------|
|---------------------------|---------------|
|---------------------------|---------------|
|---------------------------|---------------|


   E  E  +E   E  +E   E  Q     +Q   Q  H
|---------------------------|---------------|
|-15-15-(15)-15-(15)-15-13--|-(13)----------|
|---------------------------|---------------|
|---------------------------|---------------|
|---------------------------|---------------|
|---------------------------|---------------|
|
|  E  E  +E   E  +E   E  Q     +Q   Q  H
|---------------------------|---------------|
|---------------------------|---------------|
|-11-11-(11)-11-(11)-11-11--|-(11)----------|
|---------------------------|---------------|
|---------------------------|---------------|
|---------------------------|---------------|


   E  E  +E   E  +E   E  Q     +Q.    E  +Q    Q
|-----------------------13--|-(13)---11-(11)--10--*|
|-15-15-(15)-15-(15)-15-----|---------------------*|
|---------------------------|---------------------*|
|---------------------------|---------------------*|
|---------------------------|---------------------*|
|---------------------------|---------------------*|
|
|  E  E  +E   E  +E   E  Q     +Q.    E  +Q    Q
|---------------------------|---------------------*|
|---------------------------|---------------------*|
|-11-11-(11)-11-(11)-11-11--|-(11)---11-(11)--11--*|
|---------------------------|---------------------*|
|---------------------------|---------------------*|
|---------------------------|---------------------*|



Duration Legend
---------------
W - whole; H - half; Q - quarter; E - 8th; S - 16th; T - 32nd; X - 64th; a - acciaccatura
+ - note tied to previous; . - note dotted; .. - note double dotted
Uncapitalized letters represent notes that are staccato (1/2 duration)
Irregular groupings are notated above the duration line
Duration letters will always appear directly above the note/fret number it represents the
duration for.  Duration letters with no fret number below them represent rests.  Multi-
bar rests are notated in the form Wxn, where n is the number of bars to rest for.  Low
melody durations appear below the staff

Tablature Legend
----------------
 h   - hammer-on
 p   - pull-off
 b   - bend
 pb  - pre-bend
 r   - bend release (if no number after the r, then release immediately)
 /\  - slide into or out of (from/to "nowhere")
 s   - legato slide
 S   - shift slide
 - natural harmonic
[n]  - artificial harmonic
n(n) - tapped harmonic
 ~   - vibrato
 tr  - trill
 T   - tap
 TP  - trem. picking
 PM  - palm muting
\n/  - tremolo bar dip; n = amount to dip
 \n  - tremolo bar down
 n/  - tremolo bar up
/n\  - tremolo bar inverted dip
 =   - hold bend; also acts as connecting device for hammers/pulls
 <> - volume swell (louder/softer)
 x   - on rhythm slash represents muted slash
 o   - on rhythm slash represents single note slash

Misc Legend
-----------
 |  - bar
||  - double bar
||o - repeat start
o|| - repeat end
*|  - double bar (ending)
 :  - bar (freetime)
 $  - Segno
 &  - Coda
Tempo markers -  = BPM(8/16=s8/s16), where s8 = swing 8ths, s16 = swing 16ths


            
            
Suggest correction
Creating personal tab
Creating personal tab
You can edit any tab online and save it as your Personal.

You can edit, replace or remove any tab part or add personal notes – all changes will be seen only by you.

Personal tabs can be accessed anytime from any device, even offline.
Learn more »
Give kudos to tab author, rate the tab!
1 2 3 4 5
comments
print report bad tab
3 comments total.
0 reply
IMA CHIRSTIAN 10 May 03, 2007 03:45 PM

how can this ever sound like the hyrule thing? it needs to go deeper and better...see if you can fix it!

0 reply
420ismybday 10 Sep 15, 2009 11:33 AM

i found the tab!!! its copy and paste tho.
here's the tab for the BGM on hyrule temple from super smash bros melee
i had to listen to it like a thousand times to get it right but it's very accurate
and sounds good if you play it right, the rhythym is a little tricky
it's at a somewhat fast tempo

intro (dont play the open note the 3rd time for for the first 4 parts)
------ ------ ------ ------ --------------
-3---- -4---- -5---- -4---- --------------
---3-0 x3 ---3-0 x3 ---3-0 x3 ---3-0 x3 -0-0-0-0-3-2-1
------ ------ ------ ------ --------------
------ ------ ------ ------ --------------
------ ------ ------ ------ --------------

main part (play this whole part twice)
---------------0---0---3-1-- -----------------------------------
-------3-4---4-------4-----4 -3-3-3-3-1--------3-3-3-3-4--------
-0-2-3-----3-----3---------- x2 --------------2-----------------2--
---------------------------- ----------0-4---------------0-4----
---------------------------- -----------------------------------
---------------------------- -----------------------------------

--------------------------1------
-3-3-3-3-1--------3-3-3-3-----4-3
--------------2------------------
----------0-4--------------------
---------------------------------
---------------------------------

0 reply
ninja_cupcakes4 176 Sep 29, 2010 08:32 PM

hey you should check out my tab for this song. it's pretty accurate. if you check it out, please rate it and leave a comment, and enjoy! rock on!! B)

guest
You may want to rate the tab now too:
select rating
Wanna post a correction for this tab? Suggest correction