Oops, an error
Loading. Please wait.

Super Star Soldier - Stage 8 tab

version 1
version 1

Whole song

Interactive

19 views 1 this week
no commentswrite comment
1 2 3 4 5
3 more votes to show rating
add to favorites
×
Save as Personal and add changes to this tab that will be seen only by you. Learn more ›
×
You can save this tab as Personal to edit and correct it or add notes. All changes will be seen only by you. Learn more »
launch autoscroll
font size
0
reset
how to read this tab
guitar tuner
edit
Autoscroll
slow
fast
+/-
esc
set tempo
stop
Author
Difficulty
#----------------------------------PLEASE NOTE---------------------------------#
#This file is the author's own work and represents their interpretation of the #
#song. You may only use this file for private study, scholarship, or research. #
#------------------------------------------------------------------------------##

Super Star Soldier (Turbo Graphx 16) - Stage 8 theme

Gtr I (E A D G B E) - Main Melody
Gtr II (E A D G B E) - Weirdo High Harmony
Gtr III (E A D G B E) - Weirdo Low Harmony

    Q=230
    Gtr I
    E E E E E E E E   E E E E E E E E   E E E E E E E E   E E E E E E E E
||--9-------9-------|-9-------9-------|-9-------9-------|-9-------9------|
||o-----------------|-----------------|-----------------|----------------|
||----6-6-6---6-6-6-|---6-6-6---6-6-6-|---6-6-6---6-6-6-|---6-6-6---6-6-6|
||------------------|-----------------|-----------------|----------------|
||o-----------------|-----------------|-----------------|----------------|
||------------------|-----------------|-----------------|----------------|
|
|   Gtr III
|   E E E E E E E E   E E E E E E E E   E E E E E E E E   E E E E E E E E
||------------------|-----------------|-----------------|----------------|
||o---------7-------|---------7-------|---------7-------|---------7------|
||----6-8-9---9-8-6-|---6-8-9---9-8-6-|---6-8-9---9-8-6-|---6-8-9---9-8-6|
||--6---------------|-6---------------|-6---------------|-6--------------|
||o-----------------|-----------------|-----------------|----------------|
||------------------|-----------------|-----------------|----------------|
|
|   Gtr III
|   E E E E E E E E   E E E E E E E E   E E E E E E E E   E E E E E E E E
||------------------|-----------------|-----------------|----------------|
||o-----------------|-----------------|-----------------|----------------|
||------5-6-8-6-5---|-----5-6-8-6-5---|-----5-6-8-6-5---|-----5-6-8-6-5--|
||----6-----------6-|---6-----------6-|---6-----------6-|---6-----------6|
||o-7---------------|-7---------------|-7---------------|-7--------------|
||------------------|-----------------|-----------------|----------------|


  E  E E E E E E  E   E  E E E E E E  E
|-9--------9--------|-9--------9--------|
|-------------------|-------------------|
|----6-6-6---6-6--6-|----6-6-6---6-6--6-|
|-------------------|-------------------|
|-------------------|-------------------|
|-------------------|-------------------|
|
| E  E E E E E E  E   E  E E E E E E  E
|-------------------|-------------------|
|----------7--------|----------7--------|
|--------7---7------|--------7---7------|
|------9-------9----|------9-------9----|
|-7-11-----------11-|-7-11-----------11-|
|-------------------|-------------------|
|
| E  E E E E E E  E   E  E E E E E E  E
|-------------------|-------------------|
|-------------------|-------------------|
|--------4-7-4------|--------4-7-4------|
|------6-------6----|------6-------6----|
|-5--7------------7-|-5--7------------7-|
|-------------------|-------------------|


  E  E  E E E E  E  E    E  E E E  E E E  E
|-9---------9---------|-12--------12--------|
|---------------------|---------------------|
|----6--6-6---6--6--6-|-----9-9-9----9-9--9-|
|---------------------|---------------------|
|---------------------|---------------------|
|---------------------|---------------------|
|
| E  E  E E E E  E  E    E  E E E  E E E  E
|---------------------|------------8--------|
|-----------9---------|---------9----9------|
|---------9---9-------|-------8--------8----|
|------11-------11----|----10------------10-|
|-9-13-------------13-|-11------------------|
|---------------------|---------------------|
|
| E  E  E E E E  E  E    E  E E E  E E E  E
|---------------------|------------4--------|
|-----------5---------|---------4----4------|
|-------3-6---6--3----|-------5--------5----|
|----4--------------4-|-----4-------------4-|
|-4-------------------|--6------------------|
|---------------------|---------------------|


  E E E E E E E E   E E E E E E E E   E E E E E E E E   E E E E E E E E
|-9-------9-------|-9-------9-------|-9-------9-------|-9-------9-------|
|-----------------|-----------------|-----------------|-----------------|
|---6-6-6---6-6-6-|---6-6-6---6-6-6-|---6-6-6---6-6-6-|---6-6-6---6-6-6-|
|-----------------|-----------------|-----------------|-----------------|
|-----------------|-----------------|-----------------|-----------------|
|-----------------|-----------------|-----------------|-----------------|
|
| E E E E E E E E   E E E E E E E E   E E E E E E E E   E E E E E E E E
|-----------------|-----------------|-----------------|-----------------|
|---------7-------|---------7-------|---------7-------|---------7-------|
|---6-8-9---9-8-6-|---6-8-9---9-8-6-|---6-8-9---9-8-6-|---6-8-9---9-8-6-|
|-6---------------|-6---------------|-6---------------|-6---------------|
|-----------------|-----------------|-----------------|-----------------|
|-----------------|-----------------|-----------------|-----------------|
|
| E E E E E E E E   E E E E E E E E   E E E E E E E E   E E E E E E E E
|-----------------|-----------------|-----------------|-----------------|
|-----------------|-----------------|-----------------|-----------------|
|-----5-6-8-6-5---|-----5-6-8-6-5---|-----5-6-8-6-5---|-----5-6-8-6-5---|
|---6-----------6-|---6-----------6-|---6-----------6-|---6-----------6-|
|-7---------------|-7---------------|-7---------------|-7---------------|
|-----------------|-----------------|-----------------|-----------------|


  E  E E E E E E  E   E  E E E E E E  E
|-9--------9--------|-9--------9--------|
|-------------------|-------------------|
|----6-6-6---6-6--6-|----6-6-6---6-6--6-|
|-------------------|-------------------|
|-------------------|-------------------|
|-------------------|-------------------|
|
| E  E E E E E E  E   E  E E E E E E  E
|-------------------|-------------------|
|----------7--------|----------7--------|
|--------7---7------|--------7---7------|
|------9-------9----|------9-------9----|
|-7-11-----------11-|-7-11-----------11-|
|-------------------|-------------------|
|
| E  E E E E E E  E   E  E E E E E E  E
|-------------------|-------------------|
|-------------------|-------------------|
|--------4-7-4------|--------4-7-4------|
|------6-------6----|------6-------6----|
|-5--7------------7-|-5--7------------7-|
|-------------------|-------------------|


  E  E  E E E E  E  E    E  E E E  E E E  E
|-9---------9---------|-12--------12--------|
|---------------------|---------------------|
|----6--6-6---6--6--6-|-----9-9-9----9-9--9-|
|---------------------|---------------------|
|---------------------|---------------------|
|---------------------|---------------------|
|
| E  E  E E E E  E  E    E  E E E  E E E  E
|---------------------|------------8--------|
|-----------9---------|---------9----9------|
|---------9---9-------|-------8--------8----|
|------11-------11----|----10------------10-|
|-9-13-------------13-|-11------------------|
|---------------------|---------------------|
|
| E  E  E E E E  E  E    E  E E E  E E E  E
|---------------------|------------4--------|
|-----------5---------|---------4----4------|
|-------3-6---6--3----|-------5--------5----|
|----4--------------4-|-----4-------------4-|
|-4-------------------|--6------------------|
|---------------------|---------------------|


  Gtr II
          ~~~~~~~~~~~~~~
  E E E E H         +Q    a E E E E E E
|---------7-------|-(7)-----------------|
|-------9---------|-------8-7---7-8-9---|
|-6-8-9-----------|-----------9-------9-|
|-----------------|---------------------|
|-----------------|---------------------|
|-----------------|---------------------|
|
| E E E E E E E E    E  E   E E E E E E
|-----------------|---------------------|
|---------7-------|-------------7-------|
|---6-8-9---9-8-6-|-----6---8-9---9-8-6-|
|-6---------------|--6------------------|
|-----------------|---------------------|
|-----------------|---------------------|
|
| E E E E E E E E    E  E   E E E E E E
|-----------------|---------------------|
|-----------------|---------------------|
|-----5-6-8-6-5---|---------5-6-8-6-5---|
|---6-----------6-|-----6-------------6-|
|-7---------------|--7------------------|
|-----------------|---------------------|


            ~~
  E E E E E Q.       +E  E E E E E E E
|------------------|--------------------|
|------------------|---------7-8-7------|
|-6-9-6---9-6------|-(6)-6-9-------9-6--|
|-------9----------|--------------------|
|------------------|--------------------|
|------------------|--------------------|
|
| E E E E E E  E E    E  E E E E E E E
|------------------|--------------------|
|---------7--------|-----------7--------|
|---6-8-9---9--8-6-|-----6-8-9---9-8-6--|
|-6----------------|--6-----------------|
|------------------|--------------------|
|------------------|--------------------|
|
| E E E E E E  E E    E  E E E E E E E
|------------------|--------------------|
|------------------|--------------------|
|-----5-6-8-6--5---|-------5-6-8-6-5----|
|---6------------6-|-----6-----------6--|
|-7----------------|--7-----------------|
|------------------|--------------------|


  a Q    E E a Q   E  E   a Q    E E a Q   E  E
|-----------------------|-----------------------|
|-8-7--------8-7--------|-8-7--------8-7--------|
|--------9-6-------9--6-|--------9-6-------9--6-|
|-----------------------|-----------------------|
|-----------------------|-----------------------|
|-----------------------|-----------------------|
|
|   E  E E E   E E E  E     E  E E E   E E E  E
|-----------------------|-----------------------|
|--------------7--------|--------------7--------|
|----------7-----7------|----------7-----7------|
|--------9---------9----|--------9---------9----|
|---7-11-------------11-|---7-11-------------11-|
|-----------------------|-----------------------|
|
|   E  E E E   E E E  E     E  E E E   E E E  E
|-----------------------|-----------------------|
|-----------------------|-----------------------|
|----------4---7-4------|----------4---7-4------|
|--------6---------6----|--------6---------6----|
|---5--7--------------7-|---5--7--------------7-|
|-----------------------|-----------------------|


  S S  S S  S S S S S S S S  S S  S S    S S  S S S S S S S S S S S S  S S
|-------------------------------------|---------------------------------------|
|-8-7-------8-7-----8-7------8-7------|--9-7------9-7-----9-7-----9-7---------|
|------9-6------9-6-----9-6-------9-6-|-------9-6-----9-6-----9-6------9-6----|
|-------------------------------------|---------------------------------------|
|-------------------------------------|---------------------------------------|
|-------------------------------------|---------------------------------------|
|
| E    E    E   E   E   E    E    E      E    E   E   E   E   E   E    E
|-------------------------------------|-------------------8-------------------|
|-------------------9-----------------|---------------9-------9---------------|
|---------------9-------9-------------|-----------8---------------8-----------|
|----------11---------------11--------|------10-----------------------10------|
|-9---13-------------------------13---|-11------------------------------------|
|-------------------------------------|---------------------------------------|
|
| E    E    E   E   E   E    E    E      E    E   E   E   E   E   E    E
|-------------------------------------|-------------------4-------------------|
|-------------------5-----------------|---------------4-------4---------------|
|-----------3---6-------6----3--------|-----------5---------------5-----------|
|------4--------------------------4---|-------4------------------------4------|
|-4-----------------------------------|--6------------------------------------|
|-------------------------------------|---------------------------------------|


          ~~~~~~~~~~~~~~
  E E E E H         +Q    a E E E E E E
|---------7-------|-(7)-----------------|
|-------9---------|-------8-7---7-8-9---|
|-6-8-9-----------|-----------9-------9-|
|-----------------|---------------------|
|-----------------|---------------------|
|-----------------|---------------------|
|
| E E E E E E E E    E  E   E E E E E E
|-----------------|---------------------|
|---------7-------|-------------7-------|
|---6-8-9---9-8-6-|-----6---8-9---9-8-6-|
|-6---------------|--6------------------|
|-----------------|---------------------|
|-----------------|---------------------|
|
| E E E E E E E E    E  E   E E E E E E
|-----------------|---------------------|
|-----------------|---------------------|
|-----5-6-8-6-5---|---------5-6-8-6-5---|
|---6-----------6-|-----6-------------6-|
|-7---------------|--7------------------|
|-----------------|---------------------|


            ~~
  E E E E E Q.       +E  E E E E E E E
|------------------|--------------------|
|------------------|---------7-8-7------|
|-6-9-6---9-6------|-(6)-6-9-------9-6--|
|-------9----------|--------------------|
|------------------|--------------------|
|------------------|--------------------|
|
| E E E E E E  E E    E  E E E E E E E
|------------------|--------------------|
|---------7--------|-----------7--------|
|---6-8-9---9--8-6-|-----6-8-9---9-8-6--|
|-6----------------|--6-----------------|
|------------------|--------------------|
|------------------|--------------------|
|
| E E E E E E  E E    E  E E E E E E E
|------------------|--------------------|
|------------------|--------------------|
|-----5-6-8-6--5---|-------5-6-8-6-5----|
|---6------------6-|-----6-----------6--|
|-7----------------|--7-----------------|
|------------------|--------------------|


  a Q    E E a Q   E  E   a Q    E E a Q   E  E
|-----------------------|-----------------------|
|-8-7--------8-7--------|-8-7--------8-7--------|
|--------9-6-------9--6-|--------9-6-------9--6-|
|-----------------------|-----------------------|
|-----------------------|-----------------------|
|-----------------------|-----------------------|
|
|   E  E E E   E E E  E     E  E E E   E E E  E
|-----------------------|-----------------------|
|--------------7--------|--------------7--------|
|----------7-----7------|----------7-----7------|
|--------9---------9----|--------9---------9----|
|---7-11-------------11-|---7-11-------------11-|
|-----------------------|-----------------------|
|
|   E  E E E   E E E  E     E  E E E   E E E  E
|-----------------------|-----------------------|
|-----------------------|-----------------------|
|----------4---7-4------|----------4---7-4------|
|--------6---------6----|--------6---------6----|
|---5--7--------------7-|---5--7--------------7-|
|-----------------------|-----------------------|


  S S  S S  S S S S S S S S  S S  S S    S S  S S S S S S S S S S S S  S S
|-------------------------------------|---------------------------------------|
|-8-7-------8-7-----8-7------8-7------|--9-7------9-7-----9-7-----9-7---------|
|------9-6------9-6-----9-6-------9-6-|-------9-6-----9-6-----9-6------9-6----|
|-------------------------------------|---------------------------------------|
|-------------------------------------|---------------------------------------|
|-------------------------------------|---------------------------------------|
|
| E    E    E   E   E   E    E    E      E    E   E   E   E   E   E    E
|-------------------------------------|-------------------8-------------------|
|-------------------9-----------------|---------------9-------9---------------|
|---------------9-------9-------------|-----------8---------------8-----------|
|----------11---------------11--------|------10-----------------------10------|
|-9---13-------------------------13---|-11------------------------------------|
|-------------------------------------|---------------------------------------|
|
| E    E    E   E   E   E    E    E      E    E   E   E   E   E   E    E
|-------------------------------------|-------------------4-------------------|
|-------------------5-----------------|---------------4-------4---------------|
|-----------3---6-------6----3--------|-----------5---------------5-----------|
|------4--------------------------4---|-------4------------------------4------|
|-4-----------------------------------|--6------------------------------------|
|-------------------------------------|---------------------------------------|


  ~~        ~~~~~~~~~~~~~~~~~~
  Q.     E +Q    Q     +E  Q.     E E E E
|--------7-(7)-------|--------------------|
|-9--------------7---|-(7)--------8-7---7-|
|--------------------|-----9----------9---|
|--------------------|--------------------|
|--------------------|--------------------|
|--------------------|--------------------|
|
| E  E E E  E  E E E    E  E  E E E E E E
|--------------------|--------------------|
|--------------------|------------------7-|
|--------------6-----|----------8---5-8---|
|------7----7--------|--9-----9---6-------|
|----7---7-------6-9-|-----9--------------|
|-9------------------|--------------------|
|
| E  E E E  E  E E E    E  E  E E E E E E
|--------------------|--------------------|
|--------------------|----------------1-4-|
|--------------2-----|----------4---1-----|
|------2----2------1-|--4--1--4---1-------|
|----4---4-------2---|--------------------|
|-5------------------|--------------------|


  ~          ~~~
  Q   +E  E +H          +E  E E E E E E E
|---------------------|-------------------|
|---------------------|---------7-8-7-----|
|-9---(9)-6-(6)-------|-(6)-6-9-------9-6-|
|---------------------|-------------------|
|---------------------|-------------------|
|---------------------|-------------------|
|
| E E  E  E  E  E E E    E  E E E E E E E
|---------------------|-------------------|
|-5-------------------|--5--------------5-|
|---6---------------6-|-----6---------6---|
|------6----------6---|-------6-----6-----|
|---------7--4--7-----|---------7-4-------|
|---------------------|-------------------|
|
| E E  E  E  E  E E E    E  E E E E E E E
|---------------------|-------------------|
|-2-------------------|--2--------------2-|
|---1---------------1-|-----1---------1---|
|------2----------2---|-------2-----2-----|
|---------4-----4-----|---------4---------|
|------------4--------|-----------4-------|


  ~~        ~~~~~~~~~~~~~~~~~~
  Q.     E +Q    Q     +E  Q.     E E E E
|--------7-(7)-------|--------------------|
|-9--------------7---|-(7)--------8-7---7-|
|--------------------|-----9----------9---|
|--------------------|--------------------|
|--------------------|--------------------|
|--------------------|--------------------|
|
| E  E E E  E  E E E    E  E  E E E E E E
|--------------------|--------------------|
|--------------------|------------------7-|
|--------------6-----|----------8---5-8---|
|------7----7--------|--9-----9---6-------|
|----7---7-------6-9-|-----9--------------|
|-9------------------|--------------------|
|
| E  E E E  E  E E E    E  E  E E E E E E
|--------------------|--------------------|
|--------------------|----------------1-4-|
|--------------2-----|----------4---1-----|
|------2----2------1-|--4--1--4---1-------|
|----4---4-------2---|--------------------|
|-5------------------|--------------------|


  W                    H        E  E E  E
|-------------------|---------------------|
|-9-----------------|-------------------7-|
|-------------------|--------------6-9----|
|-------------------|---------------------|
|-------------------|---------------------|
|-------------------|---------------------|
|
| E  E E E E E  E E    E E  E E E  E E  E
|-------------------|---------------------|
|-9-10-9-7-9-7----7-|---------------------|
|---------------9---|--9-8--9-8-6---------|
|-------------------|-------------10-6----|
|-------------------|-------------------6-|
|-------------------|---------------------|
|
| E  E E E E E  E E    E E  E E E  E E  E
|-------------------|---------------------|
|-------------------|---------------------|
|-8--9-8-6-8-6----6-|---------------------|
|--------------10---|-10-7-10-7-6---------|
|-------------------|--------------9-6----|
|-------------------|------------------10-|


  ~~        ~~~~~~~~~~~~~~~~~~
  Q.     E +Q    Q     +E  Q.     E E E E
|--------7-(7)-------|--------------------|
|-9--------------7---|-(7)--------8-7---7-|
|--------------------|-----9----------9---|
|--------------------|--------------------|
|--------------------|--------------------|
|--------------------|--------------------|
|
| E  E E E  E  E E E    E  E  E E E E E E
|--------------------|--------------------|
|--------------------|------------------7-|
|--------------6-----|----------8---5-8---|
|------7----7--------|--9-----9---6-------|
|----7---7-------6-9-|-----9--------------|
|-9------------------|--------------------|
|
| E  E E E  E  E E E    E  E  E E E E E E
|--------------------|--------------------|
|--------------------|----------------1-4-|
|--------------2-----|----------4---1-----|
|------2----2------1-|--4--1--4---1-------|
|----4---4-------2---|--------------------|
|-5------------------|--------------------|


  ~~        ~~~
  Q.     E +H          +Q    Q   E E E E
|--------------------|-------------------|
|--------------------|-----------------7-|
|-9------6-(6)-------|-(6)---------6-9---|
|--------------------|-------------------|
|--------------------|-------------------|
|--------------------|-------------------|
|
| E  E E E  E  E E E    E  E E E E E E E
|--------------------|-------------------|
|-5------------------|--5--------------5-|
|----6-------------6-|-----6---------6---|
|------6---------6---|-------6-----6-----|
|--------7--4--7-----|---------7-4-------|
|--------------------|-------------------|
|
| E  E E E  E  E E E    E  E E E E E E E
|--------------------|-------------------|
|-2------------------|--2--------------2-|
|----1-------------1-|-----1---------1---|
|------2---------2---|-------2-----2-----|
|--------4-----4-----|---------4---------|
|-----------4--------|-----------4-------|


  ~~        ~~~~~~~~~~~~~~~~~~
  Q.     E +Q    Q     +E  Q.     E E E E
|--------7-(7)-------|--------------------|
|-9--------------7---|-(7)--------8-7---7-|
|--------------------|-----9----------9---|
|--------------------|--------------------|
|--------------------|--------------------|
|--------------------|--------------------|
|
| E  E E E  E  E E E    E  E  E E E E E E
|--------------------|--------------------|
|--------------------|------------------7-|
|--------------6-----|----------8---5-8---|
|------7----7--------|--9-----9---6-------|
|----7---7-------6-9-|-----9--------------|
|-9------------------|--------------------|
|
| E  E E E  E  E E E    E  E  E E E E E E
|--------------------|--------------------|
|--------------------|----------------1-4-|
|--------------2-----|----------4---1-----|
|------2----2------1-|--4--1--4---1-------|
|----4---4-------2---|--------------------|
|-5------------------|--------------------|


                     ~~
  W                  W
|-----------------|-16-------------------------||
|-9---------------|---------------------------o||
|-----------------|----------------------------||
|-----------------|----------------------------||
|-----------------|---------------------------o||
|-----------------|----------------------------||
|
| E E E E E E E E    E E E E S S S S S S  S S
|-----------------|-------------------------8--||
|-----------------|------------------7-9-11---o||
|-----------------|--5---5-8-5-6-7-8-----------||
|-----------6---6-|----6-----------------------||
|---3-6-3-6---6---|---------------------------o||
|-4---------------|----------------------------||
|
| E E E E E E E E    E E E E S S S S S S  S S
|-----------------|-------------------------4--||
|-----------------|------------------4-5--7---o||
|-----------------|--------5-----5-6-----------||
|-----------------|--4---4---6-7---------------||
|-6---3---3-6-3-6-|----6----------------------o||
|---4---4---------|----------------------------||

            
            
Suggest correction
Creating personal tab
Creating personal tab
You can edit any tab online and save it as your Personal.

You can edit, replace or remove any tab part or add personal notes – all changes will be seen only by you.

Personal tabs can be accessed anytime from any device, even offline.
Learn more »
Give kudos to tab author, rate the tab!
1 2 3 4 5
comments
print report bad tab
guest
You may want to rate the tab now too:
select rating
Wanna post a correction for this tab? Suggest correction