Oops, an error
Loading. Please wait.

Team Fortress 2 - More Gun Version 3 Acoustic tab

652 views 12 this week
1 commentread comment
1 2 3 4 5
3 more votes to show rating
add to favorites
×
Save as Personal and add changes to this tab that will be seen only by you. Learn more ›
×
You can save this tab as Personal to edit and correct it or add notes. All changes will be seen only by you. Learn more »
launch autoscroll
font size
0
reset
how to read this tab
guitar tuner
edit
Autoscroll
slow
fast
+/-
esc
set tempo
stop
Author
Difficulty
Song: Valve Studio Orchestra - More Gun (Version 3)
Artist: Team Fortress 2 Soundtrack

Video for reference: https://www.youtube.com/watch?v=6r44zk-mCV4

Tabbed by Deven Grauberger - 6/5/2016

♩ = 160


[Intro]

e|-----------|---------------|---------------|---------------|
B|-----------|------2--2--2--|------2--2--2--|------2--2--2--|
G|-----------|------2--2--2--|------2--2--2--|------2--2--2--|
D|-----------|------2--2--2--|------2--2--2--|------2--2--2--|x2
A|-----------|--0------------|---------------|--0------------|
E|--0--2--4--|---------------|--0------------|---------------|


[Verse]

e|-----------|--------------|---------------|---------------|
B|-----------|--------------|---------------|---------------|
G|-----------|--------------|---------------|---------------|
D|-----------|------4-4--4--|--4------------|----------(2)--|
A|-----------|--0-----------|------7-3h4-7--|--7--0---------|
E|--0--2--4--|--------------|---------------|---------------|


e|-----------|--------------|----------------|-------2--2--2--|
B|-----------|--------------|----------------|-------3--3--3--|
G|-----------|--------------|----------------|-------2--2--2--|
D|-----------|------4-4--4--|--4-------------|--0-------------|
A|-----------|--0-----------|-------7-3h4-7--|----------------|
E|--0--2--4--|--------------|----------------|----------------|


e|-------2--2--2--|------2--2--2--|------2--2--2--|--^2----2--2--2--|
B|-------3--3--3--|------3--3--3--|------3--3--3--|--^3----3--3--3--|
G|-------2--2--2--|------2--2--2--|------2--2--2--|--^2----2--2--2--|
D|----------------|--0------------|---------------|--^0-------------|
A|--0-------------|---------------|--0------------|-----------------|
E|----------------|---------------|---------------|-----------------|


e|-----------|----------------|---------------|---------------|
B|-----------|-------2--2--2--|------2--2--2--|------2--2--2--|
G|-----------|-------2--2--2--|------2--2--2--|------2--2--2--|
D|-----------|-------2--2--2--|------2--2--2--|------2--2--2--|
A|--5--4--2--|-0--------------|---------------|--0------------|
E|-----------|----------------|--0------------|---------------|


e|--------------------|---------------|----------------|---------------|
B|--------------------|---------------|----------------|---------------|
G|--------------------|------1--1--1--|-------1--1--1--|------1--1--1--|
D|--------------------|------2--2--2--|--2----2--2--2--|------2--2--2--|
A|--3h4-h7-4--3-2--0--|------2--2--2--|-------2--2--2--|--2---2--2--2--|
E|--------------------|--0------------|----------------|---------------|


e|-------------|---------------|---------------|---------------|
B|-------------|------2--2--2--|------2--2--2--|------2--2--2--|
G|-------------|------2--2--2--|------2--2--2--|------2--2--2--|
D|--4--2-------|------2--2--2--|------2--2--2--|------2--2--2--|
A|--------4-3--|--0------------|---------------|--0------------|
E|-------------|---------------|--0------------|---------------|


e|-----------|---------------|--------------|------------|
B|-----------|---------------|--------------|------------|
G|-----------|-------4-4--4--|--4-----------|------------|
D|-----------|--0------------|-----7-3h4-7--|--0---------|
A|--0--2--4--|---------------|--------------|-----0------|
E|-----------|---------------|--------------|------------|


e|-----------|-------x--x--x---|---x--------|----------------|
B|-----------|------(0)(0)(0)--|--(0)-------|-------2--2--2--|
G|-----------|-------4--4--4---|---4--------|-------2--2--2--|
D|-----------|--0---(0)(0)(0)--|--(0)-7--4--|-------2--2--2--|
A|--0--2--4--|-----------------|------------|--0-------------|
E|-----------|-----------------|------------|----------------|


e|----------------|--2----2--2--2--|-----------|----------------|
B|-------2--2--2--|--3----3--3--3--|-----------|-------2--2--2--|
G|-------2--2--2--|--2----2--2--2--|-----------|-------2--2--2--|
D|-------2--2--2--|----------------|-----------|-------2--2--2--|
A|----------------|----------------|-----------|--0-------------|
E|--0-------------|----------------|--0--2--4--|----------------|


e|----------------|----------------|-----------|----------------|
B|-------2--2--2--|-------2--2--2--|-----------|-------1--1--1--|
G|-------2--2--2--|-------2--2--2--|-----------|-------2--2--2--|
D|-------2--2--2--|-------2--2--2--|-----------|-------2--2--2--|
A|----------------|--0-------------|--------2--|--0-------------|
E|--0-------------|----------------|--0--3-----|----------------|


 x Till the end
e|----------------|---------------|-----------|----------------|
B|-------1--1--1--|------1--1--1--|-----------|-------1--1--1--|
G|-------2--2--2--|------2--2--2--|-----------|-------2--2--2--|
D|-------2--2--2--|------2--2--2--|-----------|-------2--2--2--|
A|----------------|--0------------|--------2--|-0--------------|
E|--0-------------|---------------|--0--3-----|----------------|

************************************

| x    Dead note
| (n)  Ghost note
| h    Hammer-on

************************************
Suggest correction
Creating personal tab
Creating personal tab
You can edit any tab online and save it as your Personal.

You can edit, replace or remove any tab part or add personal notes – all changes will be seen only by you.

Personal tabs can be accessed anytime from any device, even offline.
Learn more »
Give kudos to tab author, rate the tab!
1 2 3 4 5
comments
print report bad tab
1 comment total.
0 reply
MrDubbyWubby 33 Jun 06, 2016 07:01 PM

I listened to the video over and over to get these tabs perfect. If there is any mistake, feel free to correct me. This is one of my first publishes.

guest
You may want to rate the tab now too:
select rating
Wanna post a correction for this tab? Suggest correction