Oops, an error
Loading. Please wait.

Team Fortress 2 - The Engineer tab

73,350 views 135 this week
5 commentsread comments
1 2 3 4 5
x 38
add to favorites
×
Save as Personal and add changes to this tab that will be seen only by you. Learn more ›
×
You can save this tab as Personal to edit and correct it or add notes. All changes will be seen only by you. Learn more »
launch autoscroll
font size
0
reset
how to read this tab
guitar tuner
edit
Autoscroll
slow
fast
+/-
esc
set tempo
stop
==Team Fortress 2 - The Engineer==

Hey look body, i'm an engineer..
That means I solve problems..

e|--------------------------------|
B|---------2-2-2---2-2-2---2-2-2--|
G|---------2-2-2---2-2-2---2-2-2--|
D|---------2-2-2---2-2-2---2-2-2--|
A|-------0---------------0--------|
E|-0-2-4---------0----------------|(x2)

Not problems like "What is beauty"
because that would fall within the perview of your conundrums of philosophy.

e|--------------------------------|
B|---------2-2-2-----------2-2-2--|
G|---------2-2-2-----------2-2-2--|
D|---------2-2-2--2h4-2----2-2-2--|
A|-------0---------------0--------|
E|-0-2-4--------------------------|

                          I solve practical problems.

e|--------------------------|S
B|--2-2-2---2-2-------------|T
G|--2-2-2---2-2-------------|O fire guns, drink beer.. "aaarrrghhh"
D|--2-2-2---2-2--2h4-2---0~-|P
A|--------0-----------4-----|
E|-0------------------------|

for instance how am I gonna stop some big mean mother hover
from tearing me a structurally superfluous new behind?

e|-----------------------------------------------------------|
B|----2-2-2---2-2-2----2-2-2---------------------------------|
G|----2-2-2---2-2-2----2-2-2----------1-1-1---1-1-1---1-1-1--|
D|----2-2-2---2-2-2----2-2-2--2-0-----2-2-2---2-2-2---2-2-2--|
A|-0----------------0-------------4---2-2-2-2-2-2-2---2-2-2--|
E|----------0-----------------------0---------------0--------|

        The answer....

e|------------------------------------------------|
B|---------2-2-2---2-2-2---2-2-2---2-2-2----2-2-2-|
G|---------2-2-2---2-2-2---2-2-2---2-2-2----2-2-2-|
D|---------2-2-2---2-2-2---2-2-2---2-2-2----2-2-2-|
A|-------0---------------0----------------0-------|
E|-0-2-4---------0---------------0----------------|

use a gun.     And if that don't work, use more gun.

e|----------2-2-2---2-2-2---2-2-2---2-2-2---2-2-2---|S
B|----------3-3-3---3-3-3---3-3-3---3-3-3---3-3-3---|T
G|----------2-2-2---2-2-2---2-2-2---2-3-2---2-2-2---|O
D|-------0----------------0---------------0-------4-|P ..."MY ARM!"
A|-0-2-4----------0---------------0-----------------|
E|--------------------------------------------------|

Like this heavy caliber tripod little 'ol number,
designed by me, built by me.

e|------------------------------------------2-2-2--------------|
B|-3---3-----2-2-2---2-2-2---2-2-2--2-2-2---3-3-3--------2-2-2-|
G|-2h4-2-2-2-2-2-2---2-2-2---2-2-2--2-2-2---2-2-2--------2-2-2-|
D|-------4-2-2-2-2---2-2-2---2-2-2--2-2-2----------------2-2-2-|
A|---------0---------------0--------------0------------0-------|
E|-----------------0--------------0--------------0-2-4---------|


And you best hope,              not pointed at you.

e|------------------------------------------------------------|
B|---2-2-2---------------------1-1-1---1-1-1---1-1-1----------|
G|---2-2-2---------------------2-2-2---2-2-2---2-2-2----------|
D|---2-2-2---------------------2-2-2---2-2-2---2-2-2------2--1| repeat till fade out...
A|---------0--------------2--0------3--------0---------3-0----|
E|-0-------^-----------------------------------------0--------|
          |
          |(let ring)


************************************

| h  Hammer-on
| ~  Vibrato

************************************

            
            
Suggest correction
Creating personal tab
Creating personal tab
You can edit any tab online and save it as your Personal.

You can edit, replace or remove any tab part or add personal notes – all changes will be seen only by you.

Personal tabs can be accessed anytime from any device, even offline.
Learn more »
comments
print report bad tab
5 comments total. Showing first comments.
+1 reply
Mea988 52 Feb 04, 2012 02:22 AM

It's the most accurate tab about this song I ever see! Very nice work!

+4 reply
andrewharte 10 Aug 27, 2013 06:12 AM

I figured out the bit for the distorted guitar so you guys know

 A|0-3-0-3-0-7-6-3-0-7-5-8-5-8-5-12-11, and you can work the timing out yourselves ;)

0 reply
neovalkyrion 10 Nov 10, 2013 03:07 PM

Just listented to the video and there's one thing that needs to be fixed.

Like this heavy caliber tripod little 'ol number,
designed by me, built by me.
e------------------------------------------2-2-2--------------|
b-3---3-----2-2-2---2-2-2---2-2-2--2-2-2---3-3-3--------2-2-2-|
g-2h4-2-2-2-2-2-2---2-2-2---2-2-2--2-2-2---2-2-2--------2-2-2-|
d-------4-2-2-2-2---2-2-2---2-2-2--2-2-2-0--------------2-2-2-|
a---------0---------------0---------------------------0-------|
E-----------------0--------------0--------------0-2-4---------|

^^^
Fix

guest
You may want to rate the tab now too:
select rating
Wanna post a correction for this tab? Suggest correction