Oops, an error
Loading. Please wait.

Tetris Theme bass

version 2
version 2

Whole song

66,230 views 24 this week
13 commentsread comments
1 2 3 4 5
x 35
add to favorites
×
Save as Personal and add changes to this tab that will be seen only by you. Learn more ›
×
You can save this tab as Personal to edit and correct it or add notes. All changes will be seen only by you. Learn more »
launch autoscroll
font size
0
reset
guitar tuner
edit
Autoscroll
slow
fast
+/-
esc
set tempo
stop
Author
Difficulty
Unregistered
Tetris Theme
The other tab was alright but this should be note perfect and easier to read
Standard Tuning
Repeat until fade

G|---8---------(8)--------------8-----------------8------------|
D|-------8-9-11---9-8---------9----11-9-8---9-11----9----------|
A|--------------------11---11--------------------------11--11--|
E|-------------------------------------------------------------|

G|-----------13--11-9-8------8-------------------8-------------|
D|---11---14---------------9-----11-9-8--8-9-11----9-----------|
A|---------------------------------------------------11-11~----|
E|-------------------------------------------------------------|

G|---8~---------------------------------------------------------|
D|-------9~---11~---8~---9~-------------8-----------------------|
A|----------------------------11~---10~-------------------------|
E|--------------------------------------------------------------|

G|---8~---------------------8-13~---12--------------------------|
D|-------9~---11~---8~----9-------------------------------------|
A|--------------------------------------------------------------|
E|--------------------------------------------------------------|


Or, if you wanna play it an octave lower...

G|-------------------------------------------------------------|
D|---1-----------------------1--------------1------------------|
A|-------1-2-4---2-1-------2----4-2-1---2-4----2---------------|
E|-------------------4---4------------------------4--4~--------|

G|--------1----------------------------------------------------|
D|------2----4-2-1-----1---------------1-----------------------|
A|---4---------------2----4-2-1--1-2-4----2--------------------|
E|-------------------------------------------4--4~-------------|

G|-------------------------------------------------------------|
D|---1~--------------------------------------------------------|
A|-------2~--4~--1~--2~----------1-----------------------------|
E|-----------------------4~--3~--------------------------------|

G|------------------------1~--0--------------------------------|
D|---1~-----------------1--------------------------------------|
A|-------2~--4~--1~---2----------------------------------------|
E|-------------------------------------------------------------|


************************************

| (n)  tied note
| ~    Vibrato

************************************
Suggest correction
Creating personal tab
Creating personal tab
You can edit any tab online and save it as your Personal.

You can edit, replace or remove any tab part or add personal notes – all changes will be seen only by you.

Personal tabs can be accessed anytime from any device, even offline.
Learn more »
comments
print report bad tab
13 comments total. Showing first comments.
+1 reply
jeroenoost 30 Apr 23, 2008 08:51 AM

yea man, sounds good. i like the 2e version better than the first :P

+2 reply
d4rkaine 10 Sep 14, 2008 04:29 PM

Sounds perfect.

Nice that you posted the Octave lower version, I like playing that one.

0 reply
WNx3fed 10 Apr 27, 2009 08:56 AM

very good job :D sounds fine :D

guest
Wanna post a correction for this tab? Suggest correction