Oops, an error
Loading. Please wait.

Tetris Theme tab

278,776 views 90 this week
54 commentsread comments
1 2 3 4 5
x 192
add to favorites
×
Save as Personal and add changes to this tab that will be seen only by you. Learn more ›
×
You can save this tab as Personal to edit and correct it or add notes. All changes will be seen only by you. Learn more »
launch autoscroll
font size
0
reset
how to read this tab
guitar tuner
edit
Autoscroll
slow
fast
+/-
esc
set tempo
stop
Author
Unregistered
Tetris Theme Guitar Tabs


just do it slowly first so you can distinguish the notes.
plus this is my first tabbed out thing ever so bare with me.


[Verses]
E 0------------------0---------------0--------|
B -0-1-3--1-0-----1-----3-1-0--0-1-3---1------|
G ------------2-2------------------------2-2--|
D --------------------------------------------|
A --------------------------------------------|
E --------------------------------------------|


E ---1--5-3-1-0-----0----------------0--------|
B 3---------------1---3--1--0-0-1-3----1------|
G ---------------------------------------2-2--|
D --------------------------------------------|
A --------------------------------------------|
E --------------------------------------------|

E 0------------------------0------------0-5-5-4---|
B --1--3--0--1-1--------0----1--3--0--1-----------|
G ---------------2-2--1---------------------------|
D ------------------------------------------------|
A ------------------------------------------------|
E ------------------------------------------------|

(repeat for infinity or untill the game ends)

            
            
Suggest correction
Creating personal tab
Creating personal tab
You can edit any tab online and save it as your Personal.

You can edit, replace or remove any tab part or add personal notes – all changes will be seen only by you.

Personal tabs can be accessed anytime from any device, even offline.
Learn more »
comments
print report bad tab
54 comments total. Showing first comments.
+11 reply
The-Per 10 Feb 27, 2005 07:00 PM

I don't get have you're supposed to play that last part. IT just sounds wrong.

+7 reply
MoshMaster101 10 Jun 12, 2005 08:00 PM

The last part is wrong, but the rest is awesome. Man I'm guna have some fun with this. . .

+2 reply
Yadoozz 102 Dec 07, 2005 06:33 AM

I myself have to things to say.
1) I think you need one more '3' in the beginning of second line.
2) I prefer playing it 12 steps up...

guest
Wanna post a correction for this tab? Suggest correction