Oops, an error
Loading. Please wait.

Tetris Theme tab

74,646 views 60 this week
8 commentsread comments
1 2 3 4 5
x 250
add to favorites
×
Save as Personal and add changes to this tab that will be seen only by you. Learn more ›
×
You can save this tab as Personal to edit and correct it or add notes. All changes will be seen only by you. Learn more »
launch autoscroll
font size
0
reset
how to read this tab
guitar tuner
edit
Autoscroll
slow
fast
+/-
esc
set tempo
stop
Author
Difficulty
Easy song, just run through a few times to get it. Play over and over until you win your
lose if case may be).

E|0------------------0---------------0--------|
B|-0-1-3--1-0-----1-----3-1-0--0-1-3---1------|
G|------------2-2------------------------2-2--|
D|--------------------------------------------|\
A|--------------------------------------------| \
E|--------------------------------------------|  \
                                                   (x2)
E|-----1--5-3-1-0-----0----------------0--------|  /
B|--3---------------1---3--1--0-0-1-3----1------| /
G|-----------------------------------------2-2--|
D|----------------------------------------------|
A|----------------------------------------------|
E|----------------------------------------------|

E|--0------------------0----------0-5--4--------|
B|----1-3-0-1-----0-------1--3-0-1--------------|
G|------------2-1-------------------------------|
D|----------------------------------------------|
A|----------------------------------------------|
E|----------------------------------------------|

            
            
Suggest correction
Creating personal tab
Creating personal tab
You can edit any tab online and save it as your Personal.

You can edit, replace or remove any tab part or add personal notes – all changes will be seen only by you.

Personal tabs can be accessed anytime from any device, even offline.
Learn more »
comments
print report bad tab
8 comments total. Showing first comments.
+6 reply
metalhead601 208 Nov 28, 2011 06:47 PM

DEAD ON!!!

+5 reply
latham224 10 Mar 18, 2013 09:04 PM

excellent better than a 5 star tab i found with 90+ votes

0 reply
MangaSky 10 Apr 14, 2013 01:18 PM

Good tab, but the Guitar Pro link takes you to a really bad Guitar Pro version...

guest
You may want to rate the tab now too:
select rating
Wanna post a correction for this tab? Suggest correction