Oops, an error
Loading. Please wait.

The Field Of Ard Skellig tab

415 views 9 this week
no commentswrite comment
1 2 3 4 5
3 more votes to show rating
add to favorites
×
Save as Personal and add changes to this tab that will be seen only by you. Learn more ›
×
You can save this tab as Personal to edit and correct it or add notes. All changes will be seen only by you. Learn more »
launch autoscroll
font size
0
reset
how to read this tab
guitar tuner
edit
Autoscroll
slow
fast
+/-
esc
set tempo
stop
Author
Difficulty
About this tab version
Well here is the final tab. Keep in count that the structure(Spacing) is a key to the fluidity of the song. Enjoy :). Was this info helpful? Yes No
e|---------------------------------------------------------------------------|
B|---------------------------------------------------------------------------|
G|-----2---------------------------------------------------------------------|
D|-----0---------------------------------------------------------------------|
A|-----0---------------------------------------------------------------------|
E|---------------------------------------------------------------------------|

e|---------------------------------------------------------------------------|
B|-----3---------3--1---3---------------------------------------3-------1----|
G|-----2----------------------------------------------------------------0----|
D|-----0---------------------------0--2------3---------2----0---0-------2----|
A|--------------------------------------------------------------3------------|
E|---------------------------------------------------------------------------|

e|---------------------------------------------------------------------------|
B|------------------------------------------------------------1--------------|
G|-----2---------3---0--2------------------------------2---------------------|
D|-----0---------------------------------------------------------------------|
A|-----0---------0--------------------------12-------------------------------|
E|---------------------------------------------------------------------------|

e|---------------------------------------------------------------------------|
B|-----3---------3--1----3-----------------------3---------------------------|
G|---------------------------------------------------------------------------|
D|--------------------------------2------------------------------------------|
A|-----1--------------------------3------------------------------------------|
E|-----1---------------------------------------------------------------------|

e|-------------------------------------0---1------3--------------------------|
B|--------------------------------3----------------------3-------------------|
G|-----2---------------------------------------------------------------------|
D|-----0---------------------------------------------------------------------|
A|-----0---------------------------------------------------------------------|
E|---------------------------------------------------------------------------|

e|-----1-----------------------------------------0-------1-------------------|
B|------------------3-------------------1---3--------------------------------|
G|---------------------------------------------------------------------------|
D|---------------------------------------------------------------------------|
A|-----1---------------------------------------------------------------------|
E|------------------1--------------------------------------------------------|

e|------------------------------------------------0--------------------------|
B|-----3---------------------------------------------------------------------|
G|-----2---------------------------------------------------------------------|
D|-----0---------------------------------------------------------------------|
A|---------------------------------------------------------------------------|
E|---------------------------------------------------------------------------|

e|---------------------------------------------------------------------------|
B|-----3----------5--3---1----3---------------------3----------3-------1-----|
G|-----2---------------------------------------------------------------------|
D|-----0-------------------------------2-----------------------2-------------|
A|--------------------------------------------------3------------------------|
E|--------------------------------------------------3------------------------|

e|---------------------------------------------------------------------------|
B|----------------------------------------------------------------------1----|
G|-----2---------3--0----2--------------------------------------2------------|
D|-----0---------------------------------------------------------------------|
A|-----0---------------------------0--0--0-----0--------0--------------------|
E|---------------------------------------------------------------------------|

e|-------------------------------------------------------------------------0-|
B|-----3---------3--1----3--------------------------3--------------3---------|
G|---------------------------------------------------------------------------|
D|------------------------------------0---2---------3--------0-----0-------2-|
A|-----1--------------------------------------------1------------------------|
E|-----1---------------------------------------------------------------------|

e|-----1---------------1-------1----------------1--------1-------0-----------|
B|---------------------------------------------------------------------------|
G|---------------------------------------------------------------------------|
D|---------------------------------------------------------------------------|
A|-----3---------------------------------------------------------------------|
E|-----3---------------------------------------------------------------------|

e|---------------------------------------------------------------------------|
B|-----3-----------3---1-----3-----------------------------1-----------------|
G|-----2----------------------------------------2----------------------------|
D|-----0---------------------------------------------------------------------|
A|---------------------------------------------------------------------------|
E|---------------------------------------------------------------------------|

e|-------------------------------------------------------------------0-------|
B|-----3-------------------------------------------------3-------------------|
G|-----0---------------------------------------------------------------------|
D|------------------------------------0------------------0-----------2-------|
A|----------------0----------------------------0-----------------------------|
E|-----1---------------------------------------------------------------------|

e|-----1-----------------1--------------8-----------5------------------------|
B|-----------------------------------------------------------6-----5---------|
G|---------------------------------------------------------------------------|
D|--------------------------------------0--------------------------2---------|
A|-----1--------------------------------------------3------------------------|
E|-----1--------------------------------------------3------------------------|

e|-----3-------------------------------------------1--------1--0-------------|
B|-----------------------------------------------------------------------1---|
G|---------------------------------------------------------------------------|
D|----------------------------2------------0---------------------------------|
A|-----3------------------3--------3-------0---------------------------------|
E|-----3--------------3------------------------------------------------------|

e|----------------------------------------------0---1-------3----------------|
B|-----3------------------------------------3--------------------------------|
G|-----2---------------------------------------------------------------------|
D|-----0---------------0-----------------------------------------------------|
A|---------------------------------------------------------------------------|
E|---------------------------------------------------------------------------|

e|-----1---------------------------------------0-------1---------------------|
B|----------------3-------------------1---3----------------------------------|
G|---------------------------------------------------------------------------|
D|---------------------------------------------------------------------------|
A|-----1---------------------------------------------------------------------|
E|----------------1----------------------------------------------------------|

e|-----0------------------------------3-----------------5--------------------|
B|-----1------------------------------1--------------------------------------|
G|---------------------------------------------------------------------------|
D|---------------------------------------------------------------------------|
A|-----3------------------------------3--------------------------------------|
E|-----3------------------------------3--------------------------------------|

e|---------------------------------------0-----------------------------------|
B|-----3----------3---1-----3---------3-----------------1---3---------1------|
G|-----2---------------------------------------------------------------------|
D|-----0-----------------------------------------0--------------------0------|
A|-----------------------------------------------0--------------------0------|
E|---------------------------------------------------------------------------|

e|---------------------------------------------------------------------------|
B|------------------------------------------------------------------------1--|
G|-----2----------3--0------2------------------------------------2-----------|
D|-----0---------------------------------------------------------------------|
A|-----0------------------------------0--0--0-----0-------0------------------|
E|---------------------------------------------------------------------------|

e|-----1----------1--0-------------------------------------------------------|
B|-----0-----------------3------------1--------3---------------3--------1----|
G|---------------------------------------------------------------------------|
D|---------------------------------------------------------------------------|
A|-----1---------------------------------------------------------------------|
E|-----1---------------------------------------------------------------------|

e|---------------------------------------------------------------------------|
B|-----------1--------3--------------------------------10--------------------|
G|-----2--------------2------------------------------------------------------|
D|-----0--------------0------------------------------------------------------|
A|---------------------------------------------------------------------------|
E|-----3--------------3------------------------------------------------------|

e|-----10-------------8-------------------10---------------------------------|
B|-----10-----------------------------------------10----------------------10-|
G|-----0------------------10-------------------------------10----------------|
D|------------------------0--------------------------------0-----------------|
A|-----0---------0--------------------------------0--------------------------|
E|---------------------------------------------------------------------------|

e|-----10--------12-13-12-------10----------------------------------------7--|
B|-----10------------------------------10--------------12--10----8--10-------|
G|-----0-------------------------------------9--0----------------------------|
D|-----10------------------------------10----------10------------------------|
A|-------------------------------------10------------------------------------|
E|-----------------------------------------------------8---------------------|

e|-----8--------------7----7-------------------------------------------------|
B|-------------------------------------------8-------8---------6---6---8-----|
G|---------------------------------------------------0-----------------------|
D|-----0---------------------------------------------0-----------------------|
A|-------------8-------------------------------------------------------------|
E|-------------------------------------8-------------------------------------|

e|---------------------------------------------------------------------------|
B|-----10------------3------3--------3---1-----1----------------------1------|
G|--------------------------2------------------0---------------2-------------|
D|-----0--------------------0------------------------------------------------|
A|-----0---------------------------------------3---------------0------3------|
E|---------------------------------------------------------------------------|

e|---------------------------------------------------------------------------|
B|-----3---------------------------------------------------------------------|
G|---------------------------------------------------------------------------|
D|-----0---------------------------0-----------------------------------------|
A|-----0---------------------------------------------------------------------|
E|---------------------------------------------------------------------------|

e|--------------------------5------------------------------------5-----------|
B|-----------------5---6--------6----5------------------5---6--------6----5--|
G|-------------7------------------------------------7------------------------|
D|---------7------------------------------------7----------------------------|
A|-----5------------------------------------5--------------------------------|
E|---------------------------------------------------------------------------|

e|--------------------------5------------------------------------------------|
B|-----------------5---6--------6----5---------------------------------------|
G|-------------7------------------------------7------------------------------|
D|---------7----------------------------------7------------------------------|
A|-----5--------------------------------------5------------------------------|
E|---------------------------------------------------------------------------|

            
            
Suggest correction
Creating personal tab
Creating personal tab
You can edit any tab online and save it as your Personal.

You can edit, replace or remove any tab part or add personal notes – all changes will be seen only by you.

Personal tabs can be accessed anytime from any device, even offline.
Learn more »
Give kudos to tab author, rate the tab!
1 2 3 4 5
comments
print report bad tab
guest
You may want to rate the tab now too:
select rating
Wanna post a correction for this tab? Suggest correction