Oops, an error
Loading. Please wait.

The Last Of Us Part Ii - Through The Valley tab

version 1
version 1

Whole song

  • Provides video play along. All rhythm guitar secti... Show more
  • Complete tab from the trailer of The Last of Us II.
  • Shawn James' "Through the Valley," as covered by G... Show more
  • This tab is an instrumental version, which include... Show more

Video

  • Detailed breakdown of picking and strumming patterns.
5,386 views 831 this week
2 commentsread comments
1 2 3 4 5
x 7
add to favorites
×
Save as Personal and add changes to this tab that will be seen only by you. Learn more ›
×
You can save this tab as Personal to edit and correct it or add notes. All changes will be seen only by you. Learn more »
launch autoscroll
font size
0
reset
how to read this tab
guitar tuner
edit
Autoscroll
slow
fast
+/-
esc
set tempo
stop
Author
Difficulty
About this tab version
Provides video play along. All rhythm guitar sections are included in this tab. Sung by Ellie Williams in Reveal Trailer of "The Last of Us Part II Reveal Trailer". Was this info helpful? Yes No
Track: Through The Valley
Artist: Ellie Williams (Ashley Johnson)
Album: The Last of Us Part II (2016)
Tuning: Standard E (E A D G B e)

Tabbed by: Noah Maranesi
Website: https://instagram.com/n04hz_ark

Video Playalong: https://youtu.be/wuVDJxtxVu4/


[Intro]
                     x4
e|---------------------|
B|:-------4-----------:|
G|------------4---(4)--|
D|-----6-------(6)-----|
A|:-------------------:|
E|--4------------------|


[Verse]

    "I walk through the valley of the shadow of death..."

                     x2                    x2                    x2                    x2 
e|---------------------|---------------------|---------------------|---------------------|
B|:-------4-----------:|:-------5-----------:|:-------4-----------:|:-------------------:|
G|------------4---(4)--|------------4---(6)--|------------4---(4)--|--------8------------|
D|-----6-------(6)-----|-----6-------(6)-----|-----6-------(6)-----|-----5------5---(5)--|
A|:-------------------:|:-4-----------------:|:-------------------:|:-6----------(6)----:|
E|--4------------------|---------------------|--4------------------|---------------------|

                     x2                    x2                                          
e|---------------------|---------------------|---------------------|---------------------|
B|:-------4-----------:|:-------5-----------:|--------4------------|---------------------|
G|------------4---(4)--|------------4---(6)--|------------4---(4)--|--------8------------|
D|-----6-------(6)-----|-----6-------(6)-----|-----6-------(6)-----|-----5------5---(5)--|
A|:-------------------:|:-4-----------------:|---------------------|--6----------(6)-----|
E|--4------------------|---------------------|--4------------------|---------------------|

e|---------------------|--4------------------|
B|--------4------------|--4------------------|
G|------------4---(4)--|--4------------------|
D|-----6-------(6)-----|--6------------------|
A|---------------------|--6------------------|
E|--4------------------|--4------------------|


[Verse]
(exact strumming not shown)

    "Surely goodness and mercy will follow me all the days of my life..."

e|--4--4--4--4--|--4--4--4--4--|--4--4--4--4--|--------------|
B|:-4--4--4--4--|--5--5--5--5--|--4--4--4--4--|--8--8--8--8-:|
G|--4--4--4--4--|--6--6--6--6--|--4--4--4--4--|--6--6--6--6--|
D|--6--6--6--6--|--6--6--6--6--|--6--6--6--6--|--8--8--8--8--|
A|:-6--6--6--6--|--4--4--4--4--|--6--6--6--6--|--6--6--6--6-:|
E|--4--4--4--4--|--------------|--4--4--4--4--|--------------|

e|--4--4--4--4--|--4--4--4--4--|--4--4--------|--4--4--4-----|
B|--4--4--4--4--|--5--5--5--5--|--4--4--8--8--|--4--4--4-----|
G|--4--4--4--4--|--6--6--6--6--|--4--4--6--6--|--4--4--4-----|
D|--6--6--6--6--|--6--6--6--6--|--6--6--8--8--|--6--6--6-----|
A|--6--6--6--6--|--4--4--4--4--|--6--6--6--6--|--6--6--6-----|
E|--4--4--4--4--|--------------|--4--4--------|--4--4--4-----|


[Outro]

    "No I can't walk..."

e|--4----------|------------|------------|-------------|
B|--4----------|------------|-8----------|-------------|
G|--4----------|------------|-6----------|-------------|
D|--6----------|------------|-8----------|-------------|
A|--6----------|------------|-6----------|-------------|
E|--4----------|------------|------------|-------------|



************************************

| (n)  Ghost note    

************************************
Suggest correction
Creating personal tab
Creating personal tab
You can edit any tab online and save it as your Personal.

You can edit, replace or remove any tab part or add personal notes – all changes will be seen only by you.

Personal tabs can be accessed anytime from any device, even offline.
Learn more »
comments
print report bad tab
2 comments total.
-1 reply
Mexicauno 61 Dec 05, 2016 05:07 PM

you can also watch in play video here.
https://youtu.be/jhTV3r8rVMI

0 reply
das.kampfferkel 20 Dec 10, 2016 07:59 AM, edited at 01:00 pm

The original song is "Through the Valley" by Shawn James!!!
You can watch it here: https://www.youtube.com/watch?v=NUw2k6ioZwo

guest
You may want to rate the tab now too:
select rating
Wanna post a correction for this tab? Suggest correction