Oops, an error
Loading. Please wait.

The Last Of Us Part Ii - Through The Valley tab

version 2
version 2

Whole song

  • Provides video play along. All rhythm guitar secti... Show more
  • Complete tab from the trailer of The Last of Us II.
  • Shawn James' "Through the Valley," as covered by G... Show more
  • This tab is an instrumental version, which include... Show more

Video

  • Detailed breakdown of picking and strumming patterns.
7,381 views 33 this week
no commentswrite comment
1 2 3 4 5
x 17
add to favorites
×
Save as Personal and add changes to this tab that will be seen only by you. Learn more ›
×
You can save this tab as Personal to edit and correct it or add notes. All changes will be seen only by you. Learn more »
launch autoscroll
font size
0
reset
how to read this tab
guitar tuner
edit
Autoscroll
slow
fast
+/-
esc
set tempo
stop
Capo on the 4th fret
Standard tuning

[Intro]
Em shape
e|-0-------0------0-------|
B|---0-------0-------0----|
G|-----0-------0----------|
D|----------------2-------|
A|---------2--------------|
e|-0----------------------| (2x)

Am shape
e|-0-------0--------0-----|
B|---1--------1--------1--|
G|-----2--------2---------|
D|---------2--------------|
A|-0----------------0-----|
e|------------------------| (2x)

Em shape
e|-0-------0------0-------|
B|---0-------0-------0----|
G|-----0-------0----------|
D|----------------2-------|
A|---------2--------------|
e|-0----------------------| (2x)

B7 shape
e|-0-------0------0-------|
B|---0-------0-------0----|
G|-----2-------2--2-------|
D|---------1--------------|
A|-2----------------------|
e|------------------------| (2x)

   Em shape                                         Am shape
e|-0-------0------0--------0------0-------0-----|-0-------0-------0-----0------0------0----|
B|---0-------0-------0-------0------0-------0---|---1-------1-------1-----1------1------1--|
G|-----0-------0---------------0------0---------|-----2-------2-------------2------2-------|
D|----------------2-----------------------2-----|---------2--------------------2-----------|
A|---------2----------------------2-------------|-0---------------0-----0-------------0----|
e|-0-----------------------0--------------------|------------------------------------------|

   Em shape                                         B7 shape
e|-0-------0------0--------0------0-------0-----|------------------------------------------|
B|---0-------0-------0-------0------0-------0---|-------0----0-------0----0----------------|
G|-----0-------0---------------0------0---------|-------2----2-------2----0----------------|
D|----------------2-----------------------2-----|-------1----1-------1----1----------------|
A|---------2----------------------2-------------|-2-----2----2-------2----2----------------|
e|-0-----------------------0--------------------|------------------------------------------|

[Verse 1] (x2)
   Em shape                                         Am shape
e|-0-------0------0--------0------0-------0-----|-0-------0-------0-----0------0------0----|
B|---0-------0-------0-------0------0-------0---|---1-------1-------1-----1------1------1--|
G|-----0-------0---------------0------0---------|-----2-------2-------------2------2-------|
D|----------------2-----------------------2-----|---------2--------------------2-----------|
A|---------2----------------------2-------------|-0---------------0-----0-------------0----|
e|-0-----------------------0--------------------|------------------------------------------|

   Em shape                                         B7 shape
e|-0-------0------0--------0------0-------0-----|-0-------0-------0------0------0--------0----|
B|---0-------0-------0-------0------0-------0---|---0-------0--------0-----0------0--------0--|
G|-----0-------0---------------0------0---------|-----2-------2---2----------2-------2---2----|
D|----------------2-----------------------2-----|---------1---------------------1-------------|
A|---------2----------------------2-------------|-2----------------------2--------------------|
e|-0-----------------------0--------------------|---------------------------------------------|

   Em shape                                         Am shape
e|-0-------0------0--------0------0-------0-----|-0-------0-------0-----0------0------0----|
B|---0-------0-------0-------0------0-------0---|---1-------1-------1-----1------1------1--|
G|-----0-------0---------------0------0---------|-----2-------2-------------2------2-------|
D|----------------2-----------------------2-----|---------2--------------------2-----------|
A|---------2----------------------2-------------|-0---------------0-----0-------------0----|
e|-0-----------------------0--------------------|------------------------------------------|

   Em shape                B7 shape                  Em shape                  Em shape
e|-0-------0------0------|--0-------0-------0-----|-0-------0-------0-------|-0------0------0------|
B|---0-------0-------0---|----0-------0--------0--|---0-------0--------0----|---0------0-------0---|
G|-----0-------0---------|------2-------2---2-----|-----0-------0-----------|-----0------0---------|
D|----------------2------|----------1-------------|-----------------2-------|---------------2------|
A|---------2-------------|--2---------------------|---------2---------------|--------2-------------|
e|-0---------------------|------------------------|-0-----------------------|-0--------------------|

(Then they play rythm guitar that goes like this)
   Em shape                    Am shape
e|-------0-0-----0--0---0-0--|--0-----0-0-----0--0---0-0----|
B|-------0-0-----0--0---0-0--|--1-----1-1-----1--1---1-1----|
G|---x---0-0--x--0--0-x-0-0--|--2-x---2-2--x--2--2-x-2-2----|
D|-2-x---2-2--x--2--2-x-2-2--|--2-x---2-2--x--2--2-x-2-2----|
A|-2-x---2-2--x--2--2-x-2-2--|--0-x---0-0--x--0--0-x-0-0----|
e|-0-x---0-0--x--0--0-x-0-0--|--x-x---x-x--x--x--x-x-x-x----|

   Em shape                     B7 shape
e|-------0-0-----0--0---0-0--|--x-----x-x-----x--x---x-x---|
B|-------0-0-----0--0---0-0--|--0-----0-0-----0--0---0-0---|
G|---x---0-0--x--0--0-x-0-0--|--2-x---2-2--x--2--2-x-2-2---|
D|-2-x---2-2--x--2--2-x-2-2--|--1-x---1-1--x--1--1-x-1-1---|
A|-2-x---2-2--x--2--2-x-2-2--|--2-x---2-2--x--2--2-x-2-2---|
e|-0-x---0-0--x--0--0-x-0-0--|--x-x---x-x--x--x--x-x-x-x---|

   Em shape                    Am shape
e|-------0-0-----0--0---0-0--|--0-----0-0-----0--0---0-0----|
B|-------0-0-----0--0---0-0--|--1-----1-1-----1--1---1-1----|
G|---x---0-0--x--0--0-x-0-0--|--2-x---2-2--x--2--2-x-2-2----|
D|-2-x---2-2--x--2--2-x-2-2--|--2-x---2-2--x--2--2-x-2-2----|
A|-2-x---2-2--x--2--2-x-2-2--|--0-x---0-0--x--0--0-x-0-0----|
e|-0-x---0-0--x--0--0-x-0-0--|--x-x---x-x--x--x--x-x-x-x----|

   Em shape        B7 shape     Em shape
e|-0--------------0------------0-----0-0-----0--0---0-0--|
B|-0--------------0------------0-----0-0-----0--0---0-0--|
G|-0--------------2------------0-x---0-0--x--0--0-x-0-0--|
D|-2--------------1------------2-x---2-2--x--2--2-x-2-2--|
A|-2--------------2------------2-x---2-2--x--2--2-x-2-2--|
e|-0--------------x------------0-x---0-0--x--0--0-x-0-0--|

   Em shape                    Am shape
e|-0-----0-0-----0--0---0-0--|--0-----0-0-----0--0---0-0----|
B|-0-----0-0-----0--0---0-0--|--1-----1-1-----1--1---1-1----|
G|-0-x---0-0--x--0--0-x-0-0--|--2-x---2-2--x--2--2-x-2-2----|
D|-2-x---2-2--x--2--2-x-2-2--|--2-x---2-2--x--2--2-x-2-2----|
A|-2-x---2-2--x--2--2-x-2-2--|--0-x---0-0--x--0--0-x-0-0----|
e|-0-x---0-0--x--0--0-x-0-0--|--x-x---x-x--x--x--x-x-x-x----|

   Em shape                     B7 shape
e|-------0-0-----0--0---0-0--|--x-----x-x-----x--x---x-x---|
B|-------0-0-----0--0---0-0--|--0-----0-0-----0--0---0-0---|
G|---x---0-0--x--0--0-x-0-0--|--2-x---2-2--x--2--2-x-2-2---|
D|-2-x---2-2--x--2--2-x-2-2--|--1-x---1-1--x--1--1-x-1-1---|
A|-2-x---2-2--x--2--2-x-2-2--|--2-x---2-2--x--2--2-x-2-2---|
e|-0-x---0-0--x--0--0-x-0-0--|--x-x---x-x--x--x--x-x-x-x---|

   Em shape                    Am shape
e|-------0-0-----0--0---0-0--|--0-----0-0-----0--0---0-0----|
B|-------0-0-----0--0---0-0--|--1-----1-1-----1--1---1-1----|
G|---x---0-0--x--0--0-x-0-0--|--2-x---2-2--x--2--2-x-2-2----|
D|-2-x---2-2--x--2--2-x-2-2--|--2-x---2-2--x--2--2-x-2-2----|
A|-2-x---2-2--x--2--2-x-2-2--|--0-x---0-0--x--0--0-x-0-0----|
e|-0-x---0-0--x--0--0-x-0-0--|--x-x---x-x--x--x--x-x-x-x----|

   Em shape        B7 shape     Em shape
e|-0--------------0------------0------|
B|-0--------------0------------0------|
G|-0--------------2------------0------|
D|-2--------------1------------2------|
A|-2--------------2------------2------|
e|-0--------------x------------0------|

   Em shape                    Am shape
e|-0-----0-0-----0--0---0-0--|--0-----0-0-----0--0---0-0----|
B|-0-----0-0-----0--0---0-0--|--1-----1-1-----1--1---1-1----|
G|-0-x---0-0--x--0--0-x-0-0--|--2-x---2-2--x--2--2-x-2-2----|
D|-2-x---2-2--x--2--2-x-2-2--|--2-x---2-2--x--2--2-x-2-2----|
A|-2-x---2-2--x--2--2-x-2-2--|--0-x---0-0--x--0--0-x-0-0----|
e|-0-x---0-0--x--0--0-x-0-0--|--x-x---x-x--x--x--x-x-x-x----|

   Em shape                     B7 shape
e|-------0-0-----0--0---0-0--|--x-----x-x-----x--x---x-x---|
B|-------0-0-----0--0---0-0--|--0-----0-0-----0--0---0-0---|
G|---x---0-0--x--0--0-x-0-0--|--2-x---2-2--x--2--2-x-2-2---|
D|-2-x---2-2--x--2--2-x-2-2--|--1-x---1-1--x--1--1-x-1-1---|
A|-2-x---2-2--x--2--2-x-2-2--|--2-x---2-2--x--2--2-x-2-2---|
e|-0-x---0-0--x--0--0-x-0-0--|--x-x---x-x--x--x--x-x-x-x---|

   Em shape                    Am shape
e|-------0-0-----0--0---0-0--|--0-----0-0-----0--0---0-0----|
B|-------0-0-----0--0---0-0--|--1-----1-1-----1--1---1-1----|
G|---x---0-0--x--0--0-x-0-0--|--2-x---2-2--x--2--2-x-2-2----|
D|-2-x---2-2--x--2--2-x-2-2--|--2-x---2-2--x--2--2-x-2-2----|
A|-2-x---2-2--x--2--2-x-2-2--|--0-x---0-0--x--0--0-x-0-0----|
e|-0-x---0-0--x--0--0-x-0-0--|--x-x---x-x--x--x--x-x-x-x----|

   Em shape        B7 shape     Em shape
e|-0--------------0------------0------|
B|-0--------------0------------0------|
G|-0--------------2------------0------|
D|-2--------------1------------2------|
A|-2--------------2------------2------|
e|-0--------------x------------0------|


************************************

| x  Dead note

************************************

            
            
Suggest correction
Creating personal tab
Creating personal tab
You can edit any tab online and save it as your Personal.

You can edit, replace or remove any tab part or add personal notes – all changes will be seen only by you.

Personal tabs can be accessed anytime from any device, even offline.
Learn more »
comments
print report bad tab
guest
You may want to rate the tab now too:
select rating
Wanna post a correction for this tab? Suggest correction