Oops, an error
Loading. Please wait.

The Last Of Us Part Ii - Through The Valley tab

version 3
version 3

Whole song

  • Provides video play along. All rhythm guitar secti... Show more
  • Complete tab from the trailer of The Last of Us II.
  • Shawn James' "Through the Valley," as covered by G... Show more
  • This tab is an instrumental version, which include... Show more

Video

  • Detailed breakdown of picking and strumming patterns.
11,752 views 27 this week
no commentswrite comment
1 2 3 4 5
x 13
add to favorites
×
Save as Personal and add changes to this tab that will be seen only by you. Learn more ›
×
You can save this tab as Personal to edit and correct it or add notes. All changes will be seen only by you. Learn more »
launch autoscroll
font size
0
reset
how to read this tab
guitar tuner
edit
Autoscroll
slow
fast
+/-
esc
set tempo
stop
Author
Difficulty
About this tab version
Complete tab from the trailer of The Last of Us II. Was this info helpful? Yes No
Through the Valley as heard in The Last of Us Part II trailer. (https://www.youtube.com/watch?v=W2Wnvvj33Wo)

It's easier if you put the capo on the 4th and play Em, Am and B7. 
But Ellie plays without a capo, so this is a capo-less version.


G#m 4 6 6 4 4 4
C#m x 4 6 6 5 4
D#7 x 6 5 6 4 x 


[Intro]

e|---------------------|---------------------|
B|-----4---------4-----|-----4---------4-----|
G|-------4---------4---|-------4---------4---|
D|---6-----6---6-----6-|---6-----6---6-----6-|
A|---------------------|---------------------|
E|-4---------4---------|-4---------4---------|

[Verse 1]

I walk through the valley of the shadow of death. 
And I fear no evil because I'm blind to it all.
e|---------------------|---------------------|---------------------|---------------------|
B|-----4---------4-----|-----5---------5-----|-----4---------4-----|-----4---------4-----|
G|-------4---------4-4-|-------6---------6---|-------4---------4---|-------6---------6---|
D|---6-----6---6-------|---6-----6---6-----6-|---6-----6---6-----6-|---5-----5---5-----5-|
A|---------------------|-4---------4---------|---------------------|-6---------6---------|
E|-4---------4---------|---------------------|-4---------4---------|---------------------|

And my mind and my gun they comfort me,
because I know I'll kill my enemies when they come.
e|---------------------|---------------------|---------------------|---------------------|
B|-----4---------4-----|-----5---------5-----|-----4---------4-----|-----4---------------|
G|-------4---------4---|-------6---------6---|-4-----4---6-----6---|-4-----4-------------|
D|---6-----6---6-----6-|---6-----6---6-----6-|---6-----6---5-----5-|---6-----6-6---------|
A|---------------------|-4---------4---------|-----------4---------|-----------6---------|
E|-4---------4---------|---------------------|-4-------------------|-4---------4---------|


[Verse 2]
       G#m                                       C#m
Surely goodness and mercy will follow me all the days of my life,
            G#m                          D#7
and I will dwell on this earth forevermore.
       G#m                                     C#m
Said I walk beside the still waters and they restore my soul,
            G#m                      D#7                G#m
but I can't walk on the path of the right because I'm wrong.


[Outro]
            G#m                      D#7
No I can't walk on the path of the right because I'm wrong.

            
            
Suggest correction
Creating personal tab
Creating personal tab
You can edit any tab online and save it as your Personal.

You can edit, replace or remove any tab part or add personal notes – all changes will be seen only by you.

Personal tabs can be accessed anytime from any device, even offline.
Learn more »
comments
print report bad tab
guest
You may want to rate the tab now too:
select rating
Wanna post a correction for this tab? Suggest correction