Oops, an error
Loading. Please wait.

The Last Of Us Part Ii - Through The Valley tab

version 4
version 4

Whole song

  • Provides video play along. All rhythm guitar secti... Show more
  • Complete tab from the trailer of The Last of Us II.
  • Shawn James' "Through the Valley," as covered by G... Show more
  • This tab is an instrumental version, which include... Show more

Video

  • Detailed breakdown of picking and strumming patterns.
40,264 views 276 this week
7 commentsread comments
1 2 3 4 5
x 34
add to favorites
×
Save as Personal and add changes to this tab that will be seen only by you. Learn more ›
×
You can save this tab as Personal to edit and correct it or add notes. All changes will be seen only by you. Learn more »
launch autoscroll
font size
0
reset
how to read this tab
guitar tuner
edit
Autoscroll
slow
fast
+/-
esc
set tempo
stop
Author
Difficulty
About this tab version
Shawn James' "Through the Valley," as covered by Gustavo Santaolalla for the Last of Us Part 2 Trailer, with chords and finger picking.
The Chords used in this song are G# minor (bar), C# minor (bar), and D# power chord

[Intro]

  G#m
e|-------------------|------------------|------------------|------------------|
B|--------4----------|------4-----------|-------4----------|-------4----------|
G|----------4--------|--------4---------|---------4--------|---------4--------|
D|------6-----6------|-----6----6-------|-----6-----6------|-----6-----6------|
A|-------------------|------------------|------------------|------------------|
E|--4----------------|-4----------------|-4----------------|-4----------------|


[Verse]

I walk...                             ...shadow...

  G#m                                     C#m
e|-------------------|------------------|------------------|-----------------|
B|--------4----------|-------4----------|-------5----------|-------5---------|
G|----------4--------|---------4-4------|---------6--------|---------6-------|
D|------6-----6------|-----6------------|-----6-----6------|-----6-----6-----|
A|-------------------|------------------|-4----------------|-4---------------|
E|--4----------------|-4----------------|------------------|-----------------|



...I, fear no evil...                 ...blind...

  G#m                                    D#
e|-------------------|------------------|------------------|-----------------|
B|--------4----------|-------4----------|------------------|-----------------|
G|----------4--------|---------4--------|-------8----------|-------8---------|
D|------6-----6------|-----6-----6------|-----8---8--------|-----8---8-------|
A|-------------------|------------------|-6---------6------|-6---------6-----|
E|--4----------------|-4----------------|------------------|-----------------|



...mind...                            ...me...
 
  G#m                                    C#m
e|-------------------|------------------|------------------|-----------------|
B|--------4----------|-------4----------|-------5----------|-------5---------|
G|----------4--------|---------4-4------|---------6--------|---------6-------|
D|------6-----6------|-----6------------|-----6-----6------|-----6-----6-----|
A|-------------------|------------------|-4----------------|-4---------------|
E|--4----------------|-4----------------|------------------|-----------------|


...know...         ...enemies...     ...come...
  
   D#                 C#m                G#m
e|-------------------|-----------------|-------------------|
B|-------------------|-----5-----------|-------4-----------|
G|-8---8-------------|-6-----6---------|-4-------4---4-----|
D|---8---8-----------|---6-----6-------|-----6-----6-------|
A|-6-------6---------|-4---------------|-------------------|
E|-------------------|-----------------|-4-----------4-----|


**Here, she starts strumming the chords. 

**Use occasional finger picking as desired.

G#m
Surely goodness and mercy will follow me, 
        C#m
all the days of my life,  
           G#m                           D#
and I will dwell, on this earth, forever more

  
Said
G#m
I walk beside still waters and they
C#m
restore my soul 
              D#                      C#m
- but I can't walk on the path of the right, 
            G#m
because I'm wrong


**more slowly, faded guitar, do not strum final chord to match trailer**

            D#                      C#m
No, I can't walk on the path of the right, 
            G#m
because I'm wrong

            
            
Suggest correction
Creating personal tab
Creating personal tab
You can edit any tab online and save it as your Personal.

You can edit, replace or remove any tab part or add personal notes – all changes will be seen only by you.

Personal tabs can be accessed anytime from any device, even offline.
Learn more »
comments
print report bad tab
7 comments total. Showing first comments.
0 reply
ferko.svebe 10 Dec 09, 2016 11:57 AM

Great! Thanks i was looking for this

0 reply
timetogame2004 26 Jan 09, 2017 12:51 AM

This is just an amazing tab for a beautiful song. I love this so much. Thank you as I was looking everywhere on the net for this :)

0 reply
atjmills87781 48 Jan 30, 2017 06:35 PM

instead of D# use an incomplete b7 shape with the barre on 4 (exclude the 1st string)

guest
You may want to rate the tab now too:
select rating
Wanna post a correction for this tab? Suggest correction