Oops, an error
Loading. Please wait.

The Legend Of Zelda - Ocarina Of Time Song Of Time Tab

14,315 views 42 this week
1 commentread comment
1 2 3 4 5
accurate
x 16
add to favorites
launch autoscroll
font size
0
reset
how to read this tab
guitar tuner
Autoscroll
slow
fast
+/-
esc
set tempo
stop
Help us to improve Ultimate-Guitar.com Take our survey!
×
Author
Difficulty
novice
e||-----------------|--------------------------------|
B||-----------------|--------------------------------|
G||-----------------|--------------------------------|
D||--7------7-------|--7-10-9----------7-------------|
A||----5--8---5--8--|---------10--8-10---------7-----|
E||-----------------|--------------------10--8---10--|

-----------------------|CGEire|-----------------------
Suggest correction
comments
print report bad tab
1 comment total.
+1 reply
jplessons13 10 wrote on January 17 2016, 03:42 am

I think it sounds better like this...
Could be wrong though...
Hopefully it's useful.

E|-----------------
B|-----------------
G|-----------------
D|--7--------7-----
A|-----5--8-----5--
E|-----------------

E|--------------------------------------
B|--------------------------------------
G|--------5--4--------------------------
D|-----7--------5-----5--7--------------
A|--8--------------8--------5-----7--5--
E|-----------------------------8--------

guest
You may want to rate the tab now too:
select rating
Wanna post a correction for this tab? Suggest correction