Oops, an error
Loading. Please wait.

The Witcher 3 - Silver For Monsters intro tab

10,205 views 123 this week
2 commentsread comments
1 2 3 4 5
x 21
add to favorites
×
Save as Personal and add changes to this tab that will be seen only by you. Learn more ›
×
You can save this tab as Personal to edit and correct it or add notes. All changes will be seen only by you. Learn more »
launch autoscroll
font size
0
reset
how to read this tab
guitar tuner
edit
Autoscroll
slow
fast
+/-
esc
set tempo
stop
Author
Difficulty
Strum the few chords in the beginning as done in the song


e|-----------------------------------------------3--3-3--2--2------------------------|
B|--4---4-4-3--3----3--3-3--3----4---4-4-3--3----3--3-3--3--3------------------------|
G|--2---2-2-2--2----3--3-2--2----2---2-2-2--2----2--2-2--2--2------------------------|
D|--0---0-0-0--0----0--0-0--0----0---0-0-0--0----0--0-0--0--0------------------------|
A|--0---0-0-0--0----0--0-0--0----0---0-0-0--0----0--0-0--0--0------------------------|
E|-----------------------------------------------------------------------------------|


[Gipsywoman solo]                       
                               
e|--------2----------------2--------------------------|
B|----3-4----3h4p3-1-1--3-4--3------------------------|
G|----------------------------------------------------|
D|----------------------------------------------------| (repeat as needed)
A|----------------------------------------------------|
E|----------------------------------------------------|

            
            
Suggest correction
Creating personal tab
Creating personal tab
You can edit any tab online and save it as your Personal.

You can edit, replace or remove any tab part or add personal notes – all changes will be seen only by you.

Personal tabs can be accessed anytime from any device, even offline.
Learn more »
comments
print report bad tab
2 comments total.
0 reply
smrdamudic377 10 Feb 28, 2017 08:59 PM

AWESOME TYYYYYYY !!!!!!!!

0 reply
matszwecja1 10 Aug 14, 2017 10:07 AM

Pardon me, but none of Percival members can be considered gypsy.

guest
You may want to rate the tab now too:
select rating
Wanna post a correction for this tab? Suggest correction