Oops, an error
Loading. Please wait.

The Witcher Theme Tab

version 1
version 1

Intro

19,725 views 195 this week
6 commentsread comments
1 2 3 4 5
x 18
add to favorites
launch autoscroll
font size
0
reset
how to read this tab
guitar tuner
Autoscroll
slow
fast
+/-
esc
set tempo
stop
Help us to improve Ultimate-Guitar.com Take our survey!
×
Difficulty
novice
[Intro]

e|-----------------------------------------------------------------------|
B|-0---7-5-2-3---5-0-----0---7-5-2---3-2--0---2-0------------------------|
G|------------------------------------------2----------------------------|
D|-----------------------------------------------------------------------|
A|-----------------------------------------------------------------------|
E|-----------------------------------------------------------------------|
Suggest correction
comments
print report bad tab
6 comments total. Showing first comments.
0 reply
amasimaru 10 May 20, 2014 12:38 AM

simple an great!

0 reply
k.mac420 10 Jul 01, 2015 06:29 AM


|-----2-0-------0-----------2-0-----------------------------------------|
|-0-------2-3-----0-----0---0---2---3-2--0---2-0------------------------|
|------------------------------------------2----------------------------|
|-----------------------------------------------------------------------|
|-----------------------------------------------------------------------|
|-----------------------------------------------------------------------|


I think it's better and more simple

0 reply
k.mac420 10 Jul 01, 2015 06:36 AM


|-----2-0-------0-----------2-0-----------------------------------------|
|-0-------2-3-----0-----0-------2---3-2--0---2-4~~----------------------|
|------------------------------------------2----------------------------|
|-----------------------------------------------------------------------|
|-----------------------------------------------------------------------|
|-----------------------------------------------------------------------|


I wrote wrong note it's correct

guest
You may want to rate the tab now too:
select rating
Wanna post a correction for this tab? Suggest correction