Oops, an error
Loading. Please wait.

This War Of Mine - We Keep Going Tab

1,720 views 78 this week
1 commentread comment
1 2 3 4 5
x 3
add to favorites
launch autoscroll
font size
0
reset
how to read this tab
guitar tuner
Autoscroll
slow
fast
+/-
esc
set tempo
stop
Author
Difficulty
Tuning
novice
E A D G B E
                                 Song from the game "This War Of Mine"
                                    Piotr Musial - We Keep Going


[INTRO 0:03]
E|----------------------------------------------------------|
B|--------2---3--------3---2--------2---3------3---2---0----|
G|----------------------------------------------------------|
D|------2------------2------------2----------2--------------|
A|----2------------2------------2---------------------------|
E|----------------------------------------------------------|

[0:30]
E|------------------------------------|
B|------------------------------------|
G|------------------------------------|
D|--------0--5p4h5-------0--4h5p4-----|
A|------3--------------0--------------|
E|----3--------------0----------------|


[0:41] Starting Quietly 
E|---------------------------------------------------------|
B|---------------------------------------------------------|
G|---------------------------------------------------------|
D|----4---4---4/6-6---6---7--6--4---4---4/6-6---6---7---9--|
A|------2---2--------------------2---2---------------------|
E|------------------7---7---------------------7---7---7----|


[0:53] Starting Loud Part
E|------------------------------------------------------------------------------------------------------------
B|------------------------------------------------------------------------------------------------------------
G|------------------------------------------------------------------------------------------------------------
D|--------4---4/6-6-----7---7--6-------4---4/6-6-----6---7---9----------4---4/6-6-----6---7--6---4---4---4/6--
A|------2---2-----------------------2----2----------------------------2---2------------------------2---2------
E|---0--------------0-7---7------0---------------0-7---7---7--------0-------------0-7---7------0--------------

---------------------|
---------------------|
---------------------|
--------6---7-----9--|
-----------------9---|
----0-7---7-----7----|


 [1:33]   [1:36]   [1:42]
E|--------------------------|
B|--------------------------|
G|--------------------------|
D|---9------11--------9-----|
A---9-----11--------11------|
E|-7-----9---------9--------|


[1:53]                   [2:04]
E|--------------------------------------|
B|--------------------------------------|
G|--------1--1-----------------1--1-----|
D|-------------t4h2-----------------t4--|
A|--2---4----------------2---4----------|
E|--------------------------------------|


[2:20] That positive part :)
E|----0----0-2/4-5-------0----0-2/4-5---4--2----0----0-2/4-5-------0----0-2/4-5----2----0-----|
B|---0---0--------------0---0------------------0---0--------------0---0-----------------------|
G|--2------------------2----------------------2------------------2----------------------------|
D|-2------------------2----------------------2------------------2-----------------------------|
A|--------------------------------------------------------------------------------------------|
E|--------------------------------------------------------------------------------------------|

Thats All, i think this is awesome song, and it easy to play. Enjoy.


********************

h-hammer on
p-pull off
t-taping
/\-slide

********************
Suggest correction
Give kudos to tab author, rate the tab!
1 2 3 4 5
comments
print report bad tab
1 comment total.
0 reply
pavle568 10 Jan 22, 2017 03:01 PM

I really loved this tab, it sounds awesome! I'm working on it now and just wanted to say, kudos to you. Great job.

guest
You may want to rate the tab now too:
select rating
Wanna post a correction for this tab? Suggest correction