Oops, an error
Loading. Please wait.

Thunder Force Iv - Evil Destroyer Tab

1,073 views 12 this week
no commentswrite comment
1 2 3 4 5
3 more votes to show rating
add to favorites
launch autoscroll
font size
0
reset
how to read this tab
guitar tuner
Autoscroll
slow
fast
+/-
esc
set tempo
stop
Help us to improve Ultimate-Guitar.com Take our survey!
×
Author
Difficulty
-------------------------------------------------------------------------------
                             EVIL DESTROYER - Thunder Force 4
-------------------------------------------------------------------------------
Tabbed by: Billy Bullshot
Email: billybullshot@hotmail.com

Tuning: Standard

e|---------------------------------------------------------------------------|
B|---------------------------------------------------------------------------|
G|--------------------------4-5-7---------------------------4-5-7------------|
D|2-2-9-2-2-7-2-2-5-2-2-2---4-5-7-2-2-9-2-2-7-2-2-5-2-2-2---4-5-7------------|
A|2-2-9-2-2-7-2-2-5-2-2-2---2-3-5-2-2-9-2-2-7-2-2-5-2-2-2---2-3-5------------|
E|0-0-7-0-0-5-0-0-3-0-0-0---------0-0-7-0-0-5-0-0-3-0-0-0--------------------|
  x x   x x   x x   x x           x x   x x   x x   x x
e|---------------------------------------------------------------------------|
B|---------------------------------------------------------------------------|
G|--------------------------4-5-7---------------------------4-5-7------------|
D|2-2-9-2-2-7-2-2-5-2-2-2---4-5-7-2-2-9-2-2-7-2-2-5-2-2-2---4-5-7------------|
A|2-2-9-2-2-7-2-2-5-2-2-2---2-3-5-2-2-9-2-2-7-2-2-5-2-2-2---2-3-5------------|
E|0-0-7-0-0-5-0-0-3-0-0-0---------0-0-7-0-0-5-0-0-3-0-0-0--------------------|
  x x   x x   x x   x x           x x   x x   x x   x x
e|---------------------------------------------------------------------------|
B|---------------------------------------------------------------------------|
G|------------------------------7---7-7-7-7-7-7-7-7-7-7-7-7-7-7-6------------|
D|2---------2-2-2-2-2-2-2-2-2-2-7---7-7-7-7-7-7-7-7-7-7-7-7-7-7-6------------|
A|2---------2-2-2-2-2-2-2-2-2-2-5---5-5-5-5-5-5-5-5-5-5-5-5-5-5-4------------|
E|2---------2-2-2-2-2-2-2-2-2-2----------------------------------------------|
              x x   x x   x x         x x   x x   x x   x x   x
e|---------------------------------------------------------------------------|
B|---------------------------------------------------------------------------|
G|--6-6-6-6-6-6-6-6-6-6-6-6-6-6-5---5-9-1412119-5-4-4-4-8---4-9-11-----------|
D|--6-6-6-6-6-6-6-6-6-6-6-6-6-6-5---5-9-1412119-5-4-4-4-8---4-9-11-----------|
A|--4-4-4-4-4-4-4-4-4-4-4-4-4-4-3---3-7-12109-7-3-2-2-2-6---2-7-9------------|
E|---------------------------------------------------------------------------|
      x x   x x   x x   x x   x
e|---------------------------------------------------------------------------|
B|---------------------------------------------------------------------------|
G|------------------------------7---7-7-7-7-7-7-7-7-7-7-7-7-7-7-6------------|
D|2---------2-2-2-2-2-2-2-2-2-2-7---7-7-7-7-7-7-7-7-7-7-7-7-7-7-6------------|
A|2---------2-2-2-2-2-2-2-2-2-2-5---5-5-5-5-5-5-5-5-5-5-5-5-5-5-4------------|
E|2---------2-2-2-2-2-2-2-2-2-2----------------------------------------------|
              x x   x x   x x         x x   x x   x x   x x   x
e|---------------------------------------------------------------------------|
B|---------------------------------------------------------------------------|
G|--6-6-6-6-6-6-6-6-6-6-6-6-6-6-5---5-5-5-5-5-5-5-5-5-5-5-5-5-5-2------------|
D|--6-6-6-6-6-6-6-6-6-6-6-6-6-6-5---5-5-5-5-5-5-5-5-5-5-5-5-5-5-2------------|
A|--4-4-4-4-4-4-4-4-4-4-4-4-4-4-3---3-3-3-3-3-3-3-3-3-3-3-3-3-3-2------------|
E|---------------------------------------------------------------------------|
      x x   x x   x x   x x   x       x x   x x   x x   x x   x
e|---------------------------------------------------------------------------|
B|---------------------------------------------------------------------------|
G|---------------------------------------------------------------------------|
D|--------------14-----------------------------------------------------------|
A|--------------14-----------------------------------------------------------|
E|--------------14-----------------------------------------------------------|

e|---------------------------------------------------------------------------|
B|---------------------------------------------------------------------------|
G|---------------------------------------------------------------------------|
D|---------------------------------------------------------------------------|
A|---------------------------------------------------------------------------|
E|---------------------------------------------------------------------------|


The second half of the tune is pretty much the same as the first,
only a semitone (one fret) higher.


************************************

| /   slide up
| \   slide down
| h   hammer-on
| p   pull-off
| ~   vibrato
| +   harmonic
| x   Mute note
| b   Bend
| pb  Pre-bend
| br  Bend release
| pbr Pre-bend release
| brb Bend release bend

************************************
Suggest correction
Give kudos to tab author, rate the tab!
1 2 3 4 5
comments
print report bad tab
guest
You may want to rate the tab now too:
select rating
Wanna post a correction for this tab? Suggest correction