Oops, an error
Loading. Please wait.

Timesplitters: Future Perfect - Disco A Go-Go Bass Tab

1,839 views 1 this week
3 commentsread comments
1 2 3 4 5
excellent!
x 4
add to favorites
launch autoscroll
font size
0
reset
guitar tuner
Autoscroll
slow
fast
+/-
esc
set tempo
stop
Help us to improve Ultimate-Guitar.com Take our survey!
×
Author
-------------------------------------------------------------------------------
		    Disco A GoGo - TimeSplitters: Future Perfect
-------------------------------------------------------------------------------

Tabbed By : Tommy Robin
e-mail: ockeroid@hotmail.com

Tuning: Standard (EADG)

This is the 70s style Disco song that plays at the credits and Disco multi 
player level in TimeSplitters: Future Perfect. 

It doesn't follow a normal song structure, it just plays one part then goes 
on to the next. There are no variations in the song, but you could as in a 
fill or two if you feel like it.


Part 1 - 0:08
G|---------------|----------9---9|---------------|----------9---9|
D|--9---9---9---9|--7---7--------|--9---9---9---9|--7---7--------|
A|---------------|--------7---7--|---------------|--------7---7--|
E|7---7---7---7--|5---5----------|7---7---7---7--|5---5----------|


Part 2 - 1:50
G|---------------|---------------|---------------|---------------|
D|---------------|---------------|---------------|---------------|
A|2--------------|2---2----------|0--------------|0---0----------|
E|---------------|--2------------|---------------|--0------------|

 |---------------|---------------|---------------|---------------|
 |---------------|---------------|---------------|44-2-----------|
 |---------------|---------------|0--------------|-----2---------|
 |3--------------|3-0-3------3-4-|---------------|---------------|


Part 3 - 2:50
G|---------------|---------------|---------------|---------------|
D|------2-2------|------4-4------|------5--5-5---|5-4---2----0-0-|
A|---2-----------|---4-----------|---5----------5|----5----------|
E|0------------0-|2------------2-|3--------------|---------------|


Transition from Part 3 to Part 4 - 3:15
G|---------------|---------------|---------------|---------------|
D|---------------|---------------|---------------|---------------|
A|---------------|---------------|---------------|---------------|
E|0--------------|2--------------|3--3--3--------|3--3--3--------|

 |---------------|---------------|---------------|---------------|
 |---------------|---------------|---------------|---------------|
 |---------------|---------------|---------------|---------------|
 |3-3------------|3--3--3--------|3-3------------|3--3--3--------|


Part 4 - 3:30
G|---------------|---------------|---------------|---------------|
D|----55-3-3-3-00|2-2x2-----2---3|----55-3-3-3-00|2-2x2-----2---3|
A|---------------|---------------|---------------|---------------|
E|3-3------------|--------x---x--|3-3------------|--------0---1--|


Part 5 (Outro) - 5:10
G|---------------|---------------|---------------|---------------|
D|------/5-3-----|------/7-5-----|-------7-5-----|-------5-5-7---|
A|--2/3----------|--4/5----------|--6/7----------|--6/7----------|
E|1------------1-|3--------------|5------------5-|5--------------|


Tab Key
 x  Mute note
 /  Slide up

Structure
 Rest - x4 Bars
 Part 1 - x5
 Rest - x4 Bars
 Part 1 - x7
 Part 2 - x4
 Part 3 - x3
 Transition - x1
 Part 4 - x13
 Part 5 (Outro) - x6
 Part 5 (Outro) - Just play the first 2 bars
 Rest - x2 Bars
 Part 5 (Outro) - x2
                                                                     25.02.06
===============================================================================
Suggest correction
comments
print report bad tab
3 comments total.
0 reply
properBo 72 wrote on December 19 2006, 06:19 pm

thank you so much! :)

0 reply
Lukifer1113 10 wrote on May 28 2007, 11:48 am

seriously, this is awesome

0 reply
outerheaven2005 153 wrote on September 11 2007, 11:18 am

great job, they really need a sequel to this game, man. oh, and havent i seen you on the MGS boards before?

guest
You may want to rate the tab now too:
select rating
Please do not post tabs as comments. Select "correction" instead!