Oops, an error
Loading. Please wait.

Toejam And Earl Theme Bass Tab

5,141 views 12 this week
1 commentread comment
1 2 3 4 5
please rate
add to favorites
launch autoscroll
font size
0
reset
guitar tuner
Autoscroll
slow
fast
+/-
esc
set tempo
stop
Help us to improve Ultimate-Guitar.com Take our survey!
×
Author
Difficulty
intermediate
ToeJam and Earl Theme
Tabbed by Pat Murphy

G--------------------------------------------------------------------------|
D------5----3--3p2-3h5----0-3p2-3--3p2-3p2-3p2-3h5-------5----3--3p2-3h5---|
A--------------------------------------------------------------------------|
E-3-------------------------------------------------3----------------------|

---------------10-10-----12--------------------------------------------------|
-0-/8--7--5-----------------------5----3--3p2-3h5---5--5--3--3-------3---3---|
-------------8--------10----------------------------------------5--5---5---5-|
-----------------------------3-----------------------------------------------|

------------------------------------------------------|
-5----5----3--3p2-3h5----0-/8--7--5--3---3---5---5----|
---------------------------------------5---5----------|
------------------------------------------------------|

Bridge
G---------------------------------------------12p10-------------------------|
D-----------------7--8--9--10---10--10/12----------12-10------------------7-|
A-10---8---10---10----------------------------------------10---8---10---10--|
E-----------------------------------------10--------------------------------|

-----------------------------------------------------------------------------|
-8--9--10---10-0-10----12---10---------------------7--8--9--10---10--10/12---|
-----------------------------------10---8---10---10--------------------------|
--------------------10---8------------------------------------------------10-|

-12p10---------------------------------------------------------|
------12-10------------------7--8--9--10---10-0-10---10--------|
-------------10---8---10---10--------------------------7--8--9-|
---------------------------------------------------------------|

Go back into the main riff
Suggest correction
What's this?
You can suggest a correction to this tab. Community and Mods will review your correction and vote to approve or reject it.
comments
We did not receive enough feedback on this tab! Please rate:
print report bad tab
1 2 3 4 5
1 comment total.
0 reply
hungryforvinyl 21 wrote on May 17 2014, 01:59 am

siiiiiick :) one of my favorite games ever lol Funkotron's where it's at <3

guest
You may want to rate the tab now too:
select rating
Please do not post tabs as comments. Select "correction" instead!