Oops, an error
Loading. Please wait.

Trackmania Forever - Menu Theme - Nadeo Bass Tab

version 1
version 1

Whole song

Interactive

464 views 1 this week
1 commentread comment
1 2 3 4 5
please rate
add to favorites
launch autoscroll
font size
0
reset
guitar tuner
Autoscroll
slow
fast
+/-
esc
set tempo
stop
Help us to improve Ultimate-Guitar.com Take our survey!
×
Author
Difficulty
novice
-----------------------------------------------------------------------------
			Trackmania Forever - Menu -- Nadeo
-----------------------------------------------------------------------------

Tabbed By : viper565

Tuning: Standard

G|--------------------------------------------------------------------------|
D|--------------------------------------------------------------------------|
A|--------------------------------------------------------------------------|
E|---------10--10--10--10--10--10--10--(10)---------------------------------| x4

G|--------------------------------------------------------------------------|
D|--------------------------------------------------------------------------|
A|--------------------------------------------------------------------------|
E|--10~------6~-------3~-------10~------------------------------------------| x8

G|--------------------------------------------------------------------------|
D|--------------------------------------------------------------------------|
A|--------------------------------------------------------------------------|
E|---------10--10--10--10--10--10--10--10-----------------------------------|x8

Drum Solo
G|--------------------------------------------------------------------------|
D|--------------------------------------------------------------------------|
A|--------------------------------------------------------------------------|
E|--10-10-10-10-10-10-10-10--6-6-6-6-6-6-6-6--3-3-3-3-3-3-3-3--10-(x8)------|

Outro - Play for the rest of the song
G|--------------------------------------------------------------------------|
D|--------------------------------------------------------------------------|
A|--------------------------------------------------------------------------|
E|--10~------6~-------3~-------10~------------------------------------------|



| /  slide up
| \  slide down
| h  hammer-on
| p  pull-off
| ~  vibrato
| +  harmonic
| x  Mute note
===============================================================================
Suggest correction
Give kudos to tab author, rate the tab!
1 2 3 4 5
comments
print report bad tab
1 comment total.
0 reply
rainbowvegassix2 10 wrote on May 20 2015, 05:58 pm

This is a relaxing theme music for playing and also listening thx

guest
You may want to rate the tab now too:
select rating
Wanna post a correction for this tab? Suggest correction