Oops, an error
Loading. Please wait.

Tristram Village Theme Bass Tab

1,041 views 1 this week
no commentswrite comment
1 2 3 4 5
please rate
add to favorites
launch autoscroll
font size
0
reset
guitar tuner
Autoscroll
slow
fast
+/-
esc
set tempo
stop
Help us to improve Ultimate-Guitar.com Take our survey!
×
Author
Diablo I Tristram Village theme; Melody, bass, and ambiance translated for bass 
guitar accompaniment to acoustic rhythm guitar.  

* - Natural harmonic
/ - Slide up
\ - Slide down
b - Bend to fret
r - Release from bend
h - Hammer on
p - Pull off
x - finger mute

Note: There are many long notes and empty spaces, therefore, you will need
to listen to the music to get the timing.  Harmonics are occasionally used
to approximate higher notes.

0:06 
G|------/15--14----------------------------|
D|---------------14--15----14--------------|
A|-----------------------------17-15----12-|
E|-----------------------------------16----|

                                         *
G|---------------/16~---20--19-16-17-/21-21|
D|-----------------------------------------|
A|-----------------------------------------|
E|--15--16-14------------------------------|


0:55
G|-----------------------------------------|
D|------------------/4-3-2-1----0-1-4-3----|
A|-/3-1---------3---/5--------3------------|
E|------4---5------------------------------|

G|--------------------2-5-4-7-10-13-\12----|
D|--0-1-4-3---5---3-5----------------------|
A|3----------------------------------------|
E|-----------------------------------------|


1:40  (Ambient noises during Intro-like bridge)
G|---b24-r22~-22--21--19--18--b24-r22\|
D|------------------------------------|
A|------------------------------------|
E|------------------------------------|

          * *  * * * *  * *    * *  * *  * *  *  
G|xxxxxxx1616-1616-1616-1616---------------------|
D|-----------------------------2222-2222-2222-22-|
A|-----------------------------------------------|
E|-----------------------------------------------|

    * * * * * * * *                
G|--2121212121212121----xxxxxxxxx----|
D|-----------------------------------|
A|-----------------------------------|
E|-----------------------------------|

{Harmonic with pick slide each tap}
G|-15-15-15-15-15-15-15---------------------------|
D|-------------------------{pick slides}----------|
A|-------------------------{pick slides}----------|
E|----------------------------------------h7b9-r8\|

2:57                                                              * 
G|---------17-20\19---/17-19-20------|--20-\17-19-20-22-20-22-b24-21-----|
D|--/19-20----------------------20-19|-----------------------------------|
A|-----------------------------------|-----------------------------------|
E|-----------------------------------|-----------------------------------|

3:35  (I couldn't hear anything else during this part)
G|------6~---------------------------|-----------------------------------|
D|-----------------------------------|-----------------------------------|
A|-----------------------------------|-----------------------------------|
E|-----------------------------------|-----------------------------------|

4:12
G|-/13-15-17-18-20~-13-15-18-17-15-/20~~~~~~~~~~~~-13-15-17-18-20--|
D|--------------------------------------21-22-19-------------------|
A|-0~~~~~~~~~~~~~~~~~~~~~~~~~0~~~~~~~~~~~~~~~~~~~~~~~~~~~~~~0~~~~~~|
E|-----------------------------------------------------------------|

G|-13-15-17-20-19-\17~~-18-------17-15-----------------------------|
D|-------------------------19-17-------17-15-----------------------|
A|-----------------------------------|-------14-15~~~~-------------|
E|-----------------------------------|-----------------------------|

That is I came up with through listening through it.  I am sure there are
errors and imperfect notes that I had trouble placing because of differences
in instrument timbre.  Please comment on any errors and corrections!
Suggest correction
What's this?
You can suggest a correction to this tab. Community and Mods will review your correction and vote to approve or reject it.
comments
We did not receive enough feedback on this tab! Please rate:
print report bad tab
1 2 3 4 5
guest
You may want to rate the tab now too:
select rating
Please do not post tabs as comments. Select "correction" instead!