Oops, an error
Loading. Please wait.

Twoson Theme Tab

506 views 1 this week
no commentswrite comment
1 2 3 4 5
please rate
add to favorites
launch autoscroll
font size
0
reset
how to read this tab
guitar tuner
Autoscroll
slow
fast
+/-
esc
set tempo
stop
Help us to improve Ultimate-Guitar.com Take our survey!
×
Contributor
The song that plays in Twoson from Mother 2

E||----------------------3---2-------3----2----3-------|
B||--------------0---------------3-----------------3---|
G||----------2-------0---------------------------------|
D||------0---------------------------------------------|
A||----------------------------------------------------|
E||--3-3-----------------------------------------------|

E||-----------0----------------------------------------|
B||-1------0-----3--1--0----------------------------0--|
G||----------------------------------------2---0-------|
D||----------------------------------------------------|
A||----------------------------------------------------|
E||----------------------------------------------------|

E||----------------------------------------------------|
B||--------------------0-------3---------0-------------|
G||----2--0--2------0-------2---------0------2--0--2---|
D||----------------------------------------------------|
A||----------------------------------------------------|
E||----------------------------------------------------|

E||-------------------------3----2----3----------------|
B||----------0---------3-----------------3----------1--|
G||--0----2-----2--------------------------------------|
D||----------------------------------------------------|
A||----------------------------------------------------|
E||----------------------------------------------------|

E||-------0--------------------------------------------|
B||--0---------3----1--0-------------------------------|
G||-----------------------2------0----0--0--2----2--2--|
D||----------------------------------------------------|
A||----------------------------------------------------|
E||----------------------------------------------------|

E||----------------------------------------------------|
B||--0-------------------0----3----1--0----------------|
G||-------0----2--------------------------2------0-----|
D||----------------------------------------------------|
A||----------------------------------------------------|
E||----------------------------------------------------|

E||-0--2--0--2---3--5--3-5--3-2---0-----0--------------|
B||---------------------------------3--3--3-1--1-3--1--|
G||----------------------------------------------------|
D||----------------------------------------------------|
A||----------------------------------------------------|
E||----------------------------------------------------|

E||----------------------------------------------------|
B||--0------1--0---------------------------0-----------|
G||-----------------2------0------------2-------2------|
D||-------------------------------------------------2--|
A||----------------------------------------------------|
E||----------------------------------------------------|

E||----------------------------------------------------|
B||----------------------------------------------------|
G||--0-------------------------------------------------|
D||-----------4----------2--------0--------------------|
A||----------------------------------------0--2--3--0--|
E||------------------------------------0--2------------|

E||-----------------------3--3-2-3--3-2-3--3-2-3-2-----|
B||------------------------------------------------3-0-|
G||----------------------------------------------------|
D||----------------------------------------------------|
A||----------------------------------------------------|
E||----------------------------------------------------|

E||-----------3---------------3----2----3--------------|
B||--3-------------------3-----------------3------1----|
G||----------------------------------------------------|
D||----------------------------------------------------|
A||----------------------------------------------------|
E||----------------------------------------------------|

E||-------0--------------------------------------------|
B||--0---------3----1--0---------------0---------------|
G||-------------------------2-----0---------2--0--2----|
D||----------------------------------------------------|
A||----------------------------------------------------|
E||----------------------------------------------------|

E||----------------------------------------------------|
B||---0----3-------0-----------------------0-----------|
G||-0---2------0------2--0--2------0----2-----2--------|
D||----------------------------------------------------|
A||----------------------------------------------------|
E||----------------------------------------------------|

E||-------3----2----3------------------0---------------|
B||--3-----------------3---1------0---------3----1--0--|
G||----------------------------------------------------|
D||----------------------------------------------------|
A||----------------------------------------------------|
E||----------------------------------------------------|

E||----------------------------------------------------|
B||---------------------------------0------------------|
G||--2------0----0--0--2----2--2---------0----2--------|
D||----------------------------------------------------|
A||----------------------------------------------------|
E||----------------------------------------------------|

E||-------------------------------0----2--0--2----3----|
B||--0----3----1--0------------------------------------|
G||------------------2----0----------------------------|
D||----------------------------------------------------|
A||----------------------------------------------------|
E||----------------------------------------------------|

E||-5--3-5--3-2-0------0-------------------------------|
B||---------------3--3---3-1-1-3--1--0----1--0---------|
G||-----------------------------------------------2----|
D||----------------------------------------------------|
A||----------------------------------------------------|
E||----------------------------------------------------|

E||----------------------------------------------------|
B||---------0------------------------------------------|
G||-0----2-------2--------------0----------------------|
D||----------------------2---------------4-------------|
A||----------------------------------------------------|
E||----------------------------------------------------|

E||----------------------------------------------------|
B||----------------------------------------------------|
G||----------------------------------------------------|
D||--2--------0----------------------------------------|
A||--------------------------------0--2--3--0----------|
E||------------------------0--2------------------------|

E||---3--3-2-3--3-2-3--3-2-3-2----------------3--------|
B||----------------------------3-0---3-----------------|
G||----------------------------------------------------|
D||----------------------------------------------------|
A||----------------------------------------------------|
E||----------------------------------------------------|

http://starmen.net/vote/vote.php?id=3404
comments
We did not receive enough feedback on this tab! Please rate:
print report bad tab
1 2 3 4 5
I want to post or [tab]
guest
You may want to rate the tab now too:
select rating
Please do not post tabs as comments. Select "correction" instead!