Oops, an error
Loading. Please wait.

Undertale - Asgore bass

version 1
version 1

Whole song

Interactive

3,268 views 21 this week
no commentswrite comment
1 2 3 4 5
2 more votes to show rating
add to favorites
×
Save as Personal and add changes to this tab that will be seen only by you. Learn more ›
×
You can save this tab as Personal to edit and correct it or add notes. All changes will be seen only by you. Learn more »
launch autoscroll
font size
0
reset
guitar tuner
edit
Autoscroll
slow
fast
+/-
esc
set tempo
stop
Author
Difficulty
intermediate
-------------------------------------------------------------------------------
                             ASGORE - Toby Fox
-------------------------------------------------------------------------------
Tabbed by: Harry Bulger
E-mail: h_bulger@hotmail.com

This is the very last bass part of the ASGORE track, starting at 2:05
This is also my first tab on here, I wrote this out by myself by slowing down the track and picking out
each individual note in sequence, so it took quite a while, but it's fairly challenging so I thought
I'd put it up here for people to try, have fun y'all.

Tuning: Standard EADG

As you might have guessed, this is played in mostly 16th's so it's viciously quick, just try to tackle
it in individual sections and then bring them together.

G|------------------------6-------------------------------6---8---9-------------------|
D|----------------------------6-------------------------------------9-----------------|
A|-----5----5-7-7-5---5-4---------------5---5-7-7-5---5-4---6---7-----7---------------|
E|-------5----------7-------4---0-0-4-0---5---------7---------------------------------|

G|------------------------------------------------------------------------------------|
D|-----------9-8-----------------4---------7-6-------6---6----------------------------|
A|-----9---9-----9-7-4---6---7---------4-7-----7-4-3---6------------------------------|
E|-------9-------------4---4---4---4-5------------------------------------------------|

G|-----------------------6-------------------------------6---8---9--------------------|
D|---------------------------6-------------------------------------9------------------|
A|-----5---5-7-7-5---5-4---------------5---5-7-7-5---5-4---6---7-----7----------------|
E|-------5---------7-------4---0-0-4-0---5---------7----------------------------------|

G|------------------------------------------------------------------------------------|
D|-----------9-8-----------------4---------7-6-----------7-6--------------------------|
A|-----9---9-----9-7-4---6---7---------4-7-----7-4---4-7-----7-4----------------------|
E|-------9-------------4---4---4---4-5-------------5----------------------------------|

G|------------------------------------------------------------------------------------|
D|-----------9-------------9-------------7-6-----------7-6----------------------------|
A|-------6-9---9-6-----6-9---9-6-----4-7-----7-4---4-7-----7-4------------------------|
E|-----7-----------9-7-----------7-5-------------5------------------------------------|

G|------------------------------------------------------------------------------------|
D|-----------9-------------9--6-------------------------------------------------------|
A|-------6-9---9-6-----6-9------4---2-1-----4---2-1-----4-----------------------------|
E|-----7-----------9-7------------4-----2-4---4-----2-4-------------------------------|
Suggest correction
Creating personal tab
Creating personal tab
You can edit any tab online and save it as your Personal.

You can edit, replace or remove any tab part or add personal notes – all changes will be seen only by you.

Personal tabs can be accessed anytime from any device, even offline.
Learn more »
Give kudos to tab author, rate the tab!
1 2 3 4 5
comments
print report bad tab
guest
You may want to rate the tab now too:
select rating
Wanna post a correction for this tab? Suggest correction