Oops, an error
Loading. Please wait.

Undertale - Dogsong intro tab

version 1
version 1

Intro

Whole song

Interactive

9,169 views 30 this week
4 commentsread comments
1 2 3 4 5
x 29
add to favorites
×
Save as Personal and add changes to this tab that will be seen only by you. Learn more ›
×
You can save this tab as Personal to edit and correct it or add notes. All changes will be seen only by you. Learn more »
launch autoscroll
font size
0
reset
how to read this tab
guitar tuner
edit
Autoscroll
slow
fast
+/-
esc
set tempo
stop
Author
Unregistered
[intro]

e|----4--1-------------------------------------------------------------------|
B|----------2--4-2------2------2--1--2-4-------------------------------------|
G|------------------1-3-----3------------------------------------------------|
D|---------------------------------------------------------------------------|
A|---------------------------------------------------------------------------|
E|---------------------------------------------------------------------------|

e|----4--1----------------2-1------------------------------------------------|
B|----------2--4-2------2-----4--4-2--------1---2----------------------------|
G|------------------1-3--------------3--3------------------------------------|
D|---------------------------------------------------------------------------|
A|---------------------------------------------------------------------------|
E|---------------------------------------------------------------------------|

Repeat as needed, the intro is almost entirely repetitive.
Transcribed from Piano sheet music (Arranged by Dinos24SP)
Suggest correction
Creating personal tab
Creating personal tab
You can edit any tab online and save it as your Personal.

You can edit, replace or remove any tab part or add personal notes – all changes will be seen only by you.

Personal tabs can be accessed anytime from any device, even offline.
Learn more »
comments
print report bad tab
4 comments total. Showing first comments.
+2 reply
icywind2468 10 Mar 13, 2016 12:33 PM

I bet Toby Fox loves his theme song on Ultimate Guitar

0 reply
icywind2468 10 Mar 13, 2016 12:34 PM

At the end, I think that there should be a repeat of the 1st fret, string B.

0 reply
xxlightxx700 10 Jan 24, 2017 01:34 PM

This is great! 5 starts

guest
Wanna post a correction for this tab? Suggest correction