Oops, an error
Loading. Please wait.

Undertale - His Theme tab

version 3
version 3

Whole song

Interactive

11,902 views 60 this week
3 commentsread comments
1 2 3 4 5
x 33
add to favorites
×
Save as Personal and add changes to this tab that will be seen only by you. Learn more ›
×
You can save this tab as Personal to edit and correct it or add notes. All changes will be seen only by you. Learn more »
launch autoscroll
font size
0
reset
how to read this tab
guitar tuner
edit
Autoscroll
slow
fast
+/-
esc
set tempo
stop
-------------------------------------------------------------------------------
                             HIS THEME - Undertale
-------------------------------------------------------------------------------
Tabbed by: Dennis C

I learned this both by ear and from other versions of the tab. As far as notes go,
I think this tab is the most accurate to the game (that I have found so far).
The pitch is a bit different in the actual game however.

BOTH OF THESE TABS ASSUME YOU'RE USING A CAPO

[Version 1]

I think this one sounds best on an acoustic 
Tuning: Standard
Capo 3 (Optional)

e|------------------------------------|--------------------------------------|
B|------3---1--------0------0-----1---|------1--------0------0-----1---------|
G|--0-----------0------0------0-------|--0-------0------0------0-------------|
D|------------------------------------|--------------------------------------|
A|------------------------------------|--------------------------------------|
E|--1---------------------------------|--1-----------------------------------|

e|------------------------------------|----------0------------------------||-|
B|------3---1--------0------0-----1---|------1-------3----1----3----------||-|
G|--0-----------0------0------0-------|--0------------------------------O-||-|
D|------------------------------------|---------------------------------O-||-|
A|------------------------------------|-----------------------------------||-|
E|--1---------------------------------|--1--------------------------------||-|
                                                                      (Repeat)

[Version 2]

I think this one sounds best on a clean electric
Tuning: Standard
Capo 6 (Optional)

e|------------------------------------|--------------------------------------|
B|------------------------------------|--------------------------------------|
G|------4---2-------1------1------1---|------2-------1------1------1---------|
D|--2-----------2------2------2-------|--2-------2------2------2-------------|
A|--0---------------------------------|--0-----------------------------------|
E|------------------------------------|--------------------------------------|

e|------------------------------------|-----------------------------------||-|
B|------------------------------------|----------2------------------------||-|
G|------4---2-------1------1------1---|------2-------4----2----4--------O-||-|
D|--2-----------2------2------2-------|--2------------------------------O-||-|
A|--0---------------------------------|--0--------------------------------||-|
E|------------------------------------|-----------------------------------||-|
                                                                      (Repeat) 

            
            
Suggest correction
Creating personal tab
Creating personal tab
You can edit any tab online and save it as your Personal.

You can edit, replace or remove any tab part or add personal notes – all changes will be seen only by you.

Personal tabs can be accessed anytime from any device, even offline.
Learn more »
comments
print report bad tab
3 comments total.
0 reply
akeydel 10 Jan 05, 2016 06:02 PM

the last interval up to the e string is incorrect, should be a 1 on the b instead of a 3.
also i cant change it from 2 stars so sorry about that,

0 reply
RockED94 10 Oct 02, 2016 07:58 PM

This tab is spot on except that fourth zero zero thing that sounds odd. For me I don't own a capo so playing it as its tabbed here withoUT sounds awful but it can be played if you bar where the capo should be and traspose all the notes accordingly.

guest
You may want to rate the tab now too:
select rating
Wanna post a correction for this tab? Suggest correction