Oops, an error
Loading. Please wait.

Undertale - Home tab

version 1
version 1

Whole song

  • A fingerstyle arrangement of the song Home from UNDERTALE.

Interactive

16,117 views 87 this week
5 commentsread comments
1 2 3 4 5
x 19
add to favorites
×
Save as Personal and add changes to this tab that will be seen only by you. Learn more ›
×
You can save this tab as Personal to edit and correct it or add notes. All changes will be seen only by you. Learn more »
launch autoscroll
font size
0
reset
how to read this tab
guitar tuner
edit
Autoscroll
slow
fast
+/-
esc
set tempo
stop
Author
Title: Home
Artist: UNDERTALE OST 012
Tempo = 120
Arranged by Robert Wang
Audio for this tab: https://www.youtube.com/watch?v=Z5cZG5RtDX0
 

e|----------------------------|-----------0L-0-------------|
B|-----------0L-0--------0----|-----------------------0----|
G|--------2-----------2-------|--------2-----------2-------|
D|-----2-----------2----------|-----2-----------2----------|
A|--0-------------------------|--4-------------------------|
E|----------------------------|----------------------------|


e|----------------------------|-----------0L-0-------------|
B|-----------0L-0--------0L---|--0-------------------------|
G|--------2-----------2-------|--------2-------------------|
D|-----2-----------2----------|-----2----------------------|
A|--3-------------------------|----------------------------|
E|----------------------------|----------------------------|


e|----------------------------|----------------------------|
B|-----------0L-0--------0----|-----------0L-0--------0----|
G|--------2-----------2-------|--------2-----------2-------|
D|-----2-----------2----------|-----2-----------2----------|
A|--0-------------------------|--4-------------------------|
E|----------------------------|----------------------------|


e|-----------0L-0-------------|--------5-4-----------------|
B|-----------------------0L---|--0-----------------0-------|
G|--------2-----------2-------|-----------------2-----2----|
D|-----4-----------4----------|----------------------------|
A|--5-------------------------|----------------------------|
E|----------------------------|----------------------------|


e|----------------------------|----------------------------|
B|-----------0L-0--------0----|-----------0L-0--------0----|
G|--------2-----------2-------|--------2-----------2-------|
D|-----2-----------2----------|-----2-----------2----------|
A|--0-------------------------|--4-------------------------|
E|----------------------------|----------------------------|


e|-----------------0----------|-----------------0----------|
B|-----------0L-0-----0-------|-----------0----------------|
G|--------2--------------2----|--------2--------------2----|
D|-----2----------------------|-----2--------------2-------|
A|--3-------------------------|--3--------2L-2-------------|
E|----------------------------|----------------------------|


e|-----------------------0----|-----------0L-0-------------|
B|-----------0L-0-------------|-----------------3--2-------|
G|--------2-----------2-------|--------2--------------2----|
D|-----2-----------2----------|-----2----------------------|
A|--0-------------------------|--4-------------------------|
E|----------------------------|----------------------------|


e|----------------------------|-----------0L----------0----|
B|-----------0L-0--------0----|--------0--0L----------0----|
G|--------2-----------2-------|-----2-----2L----------2----|
D|-----2-----------2----------|-----------2L----------2----|
A|--3-------------------------|--2-------------------------|
E|----------------------------|----------------------------|


e|--------------0-------------|-----------0L-0-------------|
B|----------------------------|--0-----0--------0----------|
G|--------2--------2----------|----------------------------|
D|-----2--------------2-------|-----6--------------6-------|
A|--0-------------------------|--4-------------------------|
E|----------------------------|----------------------------|


e|-----------0----------------|--0-------------------------|
B|-----------1----------------|----------------------------|
G|--2-----0--------0----------|--------2--4----------------|
D|----------------------------|-----4--------2--2-----2----|
A|--3-----------------3-------|--2-----------------2-------|
E|----------------------------|----------------------------|


e|--0-----------5-------------|--0--------2----------------|
B|--------------0-------------|-----------0--------0-------|
G|--------2-------------------|----------------------------|
D|-----2--------------2-------|--------6--------6----------|
A|--0-------------------------|--4-------------------------|
E|----------------------------|----------------------------|


e|--0-------------------------|----------------------------|
B|--------------0-------------|-----------2--0-------------|
G|--------0-----------2--2L---|--2-----2--------2----------|
D|----------------------------|-----2--------------2-------|
A|--3-----------2--------0L---|--0-------------------------|
E|----------------------------|----------------------------|


e|--------------0-------------|-----------0L-0-------------|
B|----------------------------|--0-----0--------0----------|
G|--2-----2--------2----------|----------------------------|
D|-----2--------------2-------|-----6--------------6-------|
A|--0-------------------------|--4--------------------4----|
E|----------------------------|----------------------------|


e|--------------0--------0L---|
B|--------1--------1----------|
G|--2--0--------------0-------|
D|----------------------------|
A|--3--------------------2L---|
E|----------------------------|


e|--0--------------------0----------------------------|
B|--------------0-------------------------------------|
G|----------------------------------------------------|
D|--------4-----------------------------2-------------|
A|--2-------------------------------------------------|
E|--------------------------------0-------------------|


e|--0-----------5-------------|--0-----------2-------------|
B|--------------0-------------|----------------------------|
G|--------2--------2----------|--------------4-------------|
D|-----2--------------2-------|--------6--------6----------|
A|--0-------------------------|--4-------------------------|
E|----------------------------|----------------------------|


e|--0-------------------------|----------------------------|--0-----0-------|
B|--3-----------0-------------|-----------2--0-------------|--3--------2----|
G|--2--------------------2L---|--2-----2--------2----------|-----2-----2----|
D|--0-------------------------|-----2--------------2-------|--0-----0-------|
A|--------------2--------0L---|--0-------------------------|----------------|
E|----------------------------|----------------------------|----------------|


e|----------------------------|--------------4--3-----2----|
B|--0--------------------0L---|--0-------------------------|
G|--------2-----1--2----------|--------2-----------2-------|
D|--0-----------0-------------|----------------------------|
A|-----------------------4----|--------------4-------------|
E|----------------------------|----------------------------|


e|--0-------------------------------------------------|--2-----0-------|
B|----------------------------------------------------|-----------2----|
G|--------------0--------------------0L----------0----|----------------|
D|----------------------------------------------------|-----4-----4----|
A|--3-----------------------3-------------------------|--2-----2-------|
E|----------------------------------------------------|----------------|


e|----------------------------|----------------|----------------|--0-----0-------|
B|--0-----------0--2L-2-------|--------0-------|----------------|--3--------2----|
G|--------2--------------1L---|--1-------------|--4--2--1--2----|-----2-----2----|
D|----------------------------|----------------|--4-----2-------|--0-----0-------|
A|--------2--------2L-2-------|-----2----------|----------------|----------------|
E|--0-----------0--------1L---|--1-----1-------|--2-----0-------|----------------|


e|----------------------------|--------------4--3-----2----|
B|--0--------------------0----|----------------------------|
G|--------2-----1--2----------|--------2-----------2-------|
D|--0-----------0-----0-------|----------------------------|
A|----------------------------|--4-----------4-------------|
E|----------------------------|----------------------------|


e|--0-------------------------------------------------|--2-----0-------|
B|----------------------------------------------------|--0--------2----|
G|--------------2--------------------2L----------2----|----------------|
D|----------------------------------------------------|----------------|
A|--3-----------------------3-------------------------|--2-------------|
E|----------------------------------------------------|----------------|


e|----------------|----------|----------------|--0----|-----0----------|
B|--0-----0--2----|-----0----|----------------|--3----|--3-----2L------|
G|-----2----------|--1-------|--4--2--1--2----|--2----|--2-----2L------|
D|--2-------------|--3-------|--4-------------|--0----|--2-----0L------|
A|----------------|----------|--4-----2-------|-------|----------------|
E|----------------|----------|----------------|-------|----------------|


e|----------------|-------|-------|-------|-------|-------||
B|--2--------2----|-------|-------|-------|-------|-------||
G|--2-----1-------|--2----|--2----|--0----|--2----|-------||
D|--0-----2-------|--4----|--2----|--2----|--4----|--2----||
A|--------2-------|--5----|--4----|--3----|--2----|--0----||
E|----------------|-------|-------|-------|-------|-------||



************************************

| L  tied note

************************************

            
            
Suggest correction
Creating personal tab
Creating personal tab
You can edit any tab online and save it as your Personal.

You can edit, replace or remove any tab part or add personal notes – all changes will be seen only by you.

Personal tabs can be accessed anytime from any device, even offline.
Learn more »
comments
print report bad tab
5 comments total. Showing first comments.
0 reply
gonhwa11 10 Mar 21, 2016 01:10 AM

pretty accurate but hard to play.

+1 reply
jazzmaster_ptx 10 Jul 28, 2016 11:03 AM

I'm having fun learning this, even if my fingers are a bit too small xD note--if the 14-13 bit is hard to play, it's the same note on the high e string 5th fret, if that makes sense. So instead of 14-13 14 on the G and D strings, you could play 5-4 0 on the high e string. It's a bit easier.

0 reply
mufletavejahn1 10 Mar 20, 2017 05:18 PM

I really enjoy this and thanks for making this!
But I'm having trouble understanding a certain part.
In the 10th, when I play it on the guitar it doesn't sound so much like the song.
Which is weird because all the lines that came before it where on point.

Am I missing something or misplaying the lines? Or is something wrong with the tabs?

guest
You may want to rate the tab now too:
select rating
Wanna post a correction for this tab? Suggest correction