Oops, an error
Loading. Please wait.

Undertale - Home tab

version 2
version 2

Whole song

  • A fingerstyle arrangement of the song Home from UNDERTALE.

Interactive

364 views 3 this week
no commentswrite comment
1 2 3 4 5
3 more votes to show rating
add to favorites
×
Save as Personal and add changes to this tab that will be seen only by you. Learn more ›
×
You can save this tab as Personal to edit and correct it or add notes. All changes will be seen only by you. Learn more »
launch autoscroll
font size
0
reset
how to read this tab
guitar tuner
edit
Autoscroll
slow
fast
+/-
esc
set tempo
stop
About this tab version
A fingerstyle arrangement of the song Home from UNDERTALE. Was this info helpful? Yes No
Home
Song By Toby Fox
Arranged By John Lee
Drop D Tuning
                                        |-3-|
Triplet Feel (This is important): E E = Q   E

If you don't understand triplet feel, just follow the midi or guitar pro file.

     E  E  E  E  E  E  E  E     E  E  E  E  E  E  E  E     E  E  E  E  E  E  E  E   
E|--------------------------|--------------------------|--------------------------|
B|--------------------------|--------------------------|--------------------------|
G|--------------------------|-----------2--L-----------|--------------------------|
D|--------0--2--L-----0--2--|--------0-----------0--2--|--------0--2--L-----0--2--|
A|-----0-----------0--------|-----0-----------0--------|-----0-----------0--------|
D|--0-----------------------|--4-----------------------|--3-----------------------|

    E  E  E  E  Q       E  E  E  E  E  E  E  E     E  E  E  E  E  E  E  E   
E|-------------------|--------------------------|--------------------------|
B|-------------------|--------------------------|--------------------------|
G|-----------2--L----|--------------------------|--------------------------|
D|--------0----------|--------0--2--L-----0--2--|--------0--2--L-----0--2--|
A|-----0-------------|-----0-----------0--------|-----0-----------0--------|
D|-------------------|--0-----------------------|--4-----------------------|

    E  E  E  E  E  E  E  E     E  E  E  E  E  E  E  E     E  E  E  E  E  E  E  E   
E|--------------------------|--------------------------|--------------------------|
B|--------------------------|-----3--2-----------------|--------------------------|
G|-----------2--L-----------|-----------2--L-----------|--------------------------|
D|--------0-----------0--2--|-----------------0--2--0--|--------0--2--L-----0--2--|
A|-----2-----------0--------|--------------------------|-----0-----------0--------|
D|--5-----------------------|--------------------------|--0-----------------------|

    E  E  E  E  E  E  E  E     E  E  E  E  E  E  E  E     E  E  E  E  E  E  E  E   
E|--------------------------|--------------------------|--------------------------|
B|--------------------------|--------------------------|--------------------------|
G|--------------------------|-----------------2--------|-----------------2--------|
D|--------0--2--L-----0--2--|--------0--2--L-----2--0--|--------0--2--L--------0--|
A|-----0-----------0--------|-----0--------------------|-----0--------------0-----|
D|--4-----------------------|--3-----------------------|--3--------2--------------|

    E  E  E  E  E  E  E  E     E  E  E  E  E  E  E  E     E  E  E  E  E  E  E  E   
E|--------------------------|--------------------------|--------------------------|
B|--------------------------|--------------------------|--------------------------|
G|-----------------------2--|-----------2--L--0--------|--------------------------|
D|--------0--2--L-----0-----|--------0-----------4--0--|--------0--2--L-----0--2--|
A|-----0-----------0--------|-----0--------------------|-----0-----------0--------|
D|--0-----------------------|--4-----------------------|--3-----------------------|

             ^                                                            
    E  E  E  E  Q       E  E  E  E  E  E  Q       E  E  E  E  E  E  Q     
E|-------------------|-----------5--L----------|-------------------------|
B|-------------------|-------------------------|--5----------------------|
G|-----------2--L----|--2----------------------|-----------2--L----------|
D|--------0--2--L----|--------0--2--L--0-------|--------2--------2-------|
A|-----0-----2--L----|-----0--------------0----|-----4--------------4----|
D|--2----------------|--0----------------------|--4----------------------|

    Q    E  E  E  E  Q       E  E  E  Q    E  E  E     E  E  Q    Q    Q     
E|----------5--L----------|-------------------------|-----------------------|
B|--3---------------------|-------------------------|-------------3---------|
G|------------------------|--2----------------------|--2--------------------|
D|----------3--L----------|--------0--2-------------|--------0----2---------|
A|-------3--------3-------|-----2----------0-----0--|-----0------------0----|
D|--3----------------3----|--2----------------2-----|--0--------------------|

    Q    E  E  E  E  Q       Q    Q    Q    E  E     E  E  E  E  E  E  Q     
E|--5-------7--L----------|--5---------0----------|-------------------------|
B|------------------------|--------------------3--|--L----------------------|
G|------------------------|-----------------------|-------------------------|
D|-------0--------0--2----|-----------------2-----|--------0--4--2--0-------|
A|----------7--L----------|-------3----2----------|-----0--------------0----|
D|--4---------------------|--3---------2-------0--|--L----------------------|

    E  E  E  E  E  E  Q       E  E  E  E  E  E  Q       E  E  E  E  E  E  E  E   
E|-----------5--L----------|-------------------------|-----------5--L-----------|
B|-------------------------|--5----------------------|--3-----------------------|
G|--2----------------------|-----------2--L----------|-----------------------2--|
D|--------0--2--L--0-------|--------2--------2-------|--------3-----L--3--------|
A|-----0--------------0----|-----4--------------4----|-----3--------------3-----|
D|--0----------------------|--4----------------------|--3--------------------2--|

    E  E  E  E  E  E  Q       E  E  Q    E  E  Q       Q    Q    Q    Q     
E|-------------------------|------------------------|--5---------7---------|
B|-------------------------|-------------3----------|--2-------------------|
G|--L--------2--L----------|--2---------------------|----------------------|
D|--------2----------------|--------0----L----------|-------2--------------|
A|-----2--------------0----|-----0----------0-------|----------------------|
D|--L--------------2-------|--0----------------0----|--2--------------2----|

    H        Q.     E     E  E  E  E  E  E  Q       Q    Q    Q    Q       Q    Q    E  Q.      
E|--5--------0---------|-------------------------|------------5----2----|--0-------------------|
B|------------------3--|--L----------------------|----------------------|-------3----2--3------|
G|---------------------|-------------------------|--2-------------------|----------------------|
D|---------------------|--------0--4--2--0-------|-------0---------0----|-------0-------0------|
A|-----------0---------|-----0--------------0----|----------------------|----------------------|
D|--3--------2------0--|--L----------------------|--5---------5---------|--5---------5---------|

              |----3----|                                                   
    Q    Q    Q    Q    Q       Q    Q    E  Q.        Q    Q    Q    Q     
e|--0---------9----8----7----|--5-------------------|------------5----2----|
B|---------------------------|----------------------|--0-------------------|
G|---------------------------|----------------------|----------------------|
D|-------0-------------------|----------------------|----------------------|
A|---------------------------|-------3-------3------|-------2---------2----|
D|--4---------0--------------|--3---------3---------|--2---------2---------|

    Q    Q    E  Q.        Q    Q    H           Q    Q    Q    Q       Q    Q    Q    Q     
E|--0---------0--2------|------------0--------|--0-------------------|------------5----2----|
B|-------3--------------|--2------------------|-------3----2----3----|----------------------|
G|----------------------|---------------------|----------------------|--2-------------------|
D|-------2-------2------|-------2----L--------|--4---------2---------|-------0---------0----|
A|--0---------0---------|--1------------------|--2---------0---------|----------------------|
D|----------------------|---------------------|----------------------|--5---------5---------|

                                       |----3----|                            
    Q    Q    E  E  E  E     Q    Q    Q    Q    Q       Q    Q    E  Q.      
E|--0------------------0--|--L---------9----8----7----|--5-------------------|
B|-------3----2--3--------|---------------------------|----------------------|
G|------------------------|---------------------------|----------------------|
D|-------0----------0-----|-------0-------------------|----------------------|
A|------------------------|---------------------------|-------3-------3------|
D|--5---------5-----------|--4---------0--------------|--3---------3---------|

    H        Q    Q       Q    Q    Q    Q       H        H           Q    Q    Q    Q     
E|-----------5----2----|--0---------0----2----|-----------0--------|--0-------------------|
B|--0------------------|-------3--------------|--2-----------------|-------3----2----3----|
G|---------------------|----------------------|--------------------|----------------------|
D|--0------------------|--2-------------------|--4-----------------|--4---------2---------|
A|---------------------|--0-------------------|--0-----------------|--2---------0---------|
D|--2------------------|----------------------|--------------------|----------------------|

    W                   H        Q    Q       W                   H        Q    Q       Q     
E|-------------------|---------------------|-------------------|---------------------|-------|
B|-------------------|---------------------|-------------------|---------------------|-------|
G|--2----------------|--L--------0----2----|-------------------|---------------------|-------|
D|-------------------|-----------2---------|--4----------------|--L--------2----4----|--0----|
A|--0----------------|--L--------0---------|--0----------------|--L--------0---------|-------|
D|--4----------------|--L------------------|--0----------------|--L------------------|--5----|

    Q       H.           Q       Q    Q                
E|-------|--------------------|-------------||-------||
B|-------|--------------------|-------------||-------||
G|-------|--------------------|------------*||-------||
D|--0----|--0------------0----|--L----0----*||-------||
A|-------|--------------------|-------------||-------||
D|--4----|--3------------2----|--L----0-----||-------||

Duration Legend
---------------
W - whole
H - half
Q - quarter
E - 8th
S - 16th
. - note dotted
|-n-|  - n-tuplets

Tablature Legend
----------------
L - tied note
g - grace note
(n) - ghost note

            
            
Suggest correction
Creating personal tab
Creating personal tab
You can edit any tab online and save it as your Personal.

You can edit, replace or remove any tab part or add personal notes – all changes will be seen only by you.

Personal tabs can be accessed anytime from any device, even offline.
Learn more »
Give kudos to tab author, rate the tab!
1 2 3 4 5
comments
print report bad tab
guest
You may want to rate the tab now too:
select rating
Wanna post a correction for this tab? Suggest correction