Oops, an error
Loading. Please wait.

Undertale - Hopes And Dreams tab

version 1
version 1

Whole song

Interactive

17,209 views 189 this week
6 commentsread comments
1 2 3 4 5
x 10
add to favorites
×
Save as Personal and add changes to this tab that will be seen only by you. Learn more ›
×
You can save this tab as Personal to edit and correct it or add notes. All changes will be seen only by you. Learn more »
launch autoscroll
font size
0
reset
how to read this tab
guitar tuner
edit
Autoscroll
slow
fast
+/-
esc
set tempo
stop
Author
Artist: toby fox
Song: Hopes and Dreams
Album: UNDERTALE Soundtrack
Tabbed by: gustavoaraujo999@hotmail.com
Tuning: Standard (EADGBE)

**The song continues on SAVE the World. For your convenience, this tab has both.


0:20
e|-/6-5-----------|
B|------6---------|
G|--------7-5-3---|
D|--------------3-|
A|----------------|
E|----------------|


0:22
e|-----13------|------13------|---------13-|--/15--13--------|
B|---------13--|--------------|------------|-----------13----|
G|-------------|--15----------|-----15-----|--------------15-|
D|-15----------|----------15--|-15---------|-----------------|
A|-------------|--------------|------------|-----------------|
E|-------------|--------------|------------|-----------------|

                
0:44
e|-----------|----------|-------------------------|
B|-----------|----------|-------------------------|
G|-10--------|----------|-----------8-7-8--7------|
D|----8-10-8-|---8-10-8-|------8-10----------10-8-|
A|-----------|-8--------|-8--8--------------------|
E|-----------|----------|-------------------------|


1:08
e|----------------------------------------------------|
B|-6--------------------------------------------------|
G|----3-5-3----3-5---7p5\3-------3-5-8-7--8p7\5--3----|
D|-----------3----------------3--------------------3--|
A|----------------------------------------------------|
E|----------------------------------------------------|


1:31
e|-------------------------------------6-------|
B|-----------------------------------6----8--6-|
G|-3--3-5-7-3----5--5-7-5-3---7--7-8-----------|
D|---------------------------------------------|
A|---------------------------------------------|
E|---------------------------------------------|


1:52
e|-----------------------------------------------------|
B|-7---------------------------------------------------|
G|----4-6-4----4-6---8p6\4-------4-6/9--8--9p8\6--4----|
D|-----------4----------------4---------------------4--|
A|-----------------------------------------------------|
E|-----------------------------------------------------|

e|----------------------------------/7-6-----------------|
B|-7-------------------------/7----------7---------------|
G|----4-6-4----4-6---8p6\4-------4----------8-6-44-6-4---|
D|-----------4-----------------------------------------4-|
A|-------------------------------------------------------|
E|-------------------------------------------------------|


2:15
e|-15--151515-15-13-12-13-15--20-15-----------|-15--151515-15-13-12-13-15----------------|
B|--------------------------------------------|------------------------------------------|
G|--------------------------------------------|------------------------------------------|
D|-----------------------------------11-13----|---------------------------12-9-10--------|
A|-----------------------------------------9--|-----------------------------------/6-4-2-|
E|--------------------------------------------|------------------------------------------|

e|-15--151515-15-13-12-13-15--20-15-----------|-15--151515-15-13-12-13-15-20-19-20-------|
B|--------------------------------------------|------------------------------------------|
G|--------------------------------------------|------------------------------------------|
D|-----------------------------------11-13----|------------------------------------------|
A|-----------------------------------------9--|-----------------------------------/6-4-2-|
E|--------------------------------------------|------------------------------------------|

e|-15--151515-15-13-12-13-15--20-15-----------|-15--151515-15-13-12-13-15-20-19-20-------|
B|--------------------------------------------|------------------------------------------|
G|--------------------------------------------|------------------------------------------|
D|-----------------------------------11-13----|------------------------------------------|
A|-----------------------------------------9--|------------------------------------------|
E|--------------------------------------------|------------------------------------------|


2:49
e|---------------------------------------------|---------|
B|----------------------------------------7-9--|---------|
G|-/8--8-8-8---8-6-4------8--8-8-8----6-8------|-/8-4-6--|
D|-------------------6-------------------------|---------|
A|---------------------------------------------|---------|
E|---------------------------------------------|---------|



SAVE the World:


0:00
e|---------------------------------|
B|----7---------7-9--7-------------|
G|-------6-------------8-6--h8p6\4-|
D|-4----------9--------------------|
A|---------------------------------|
E|---------------------------------|

e|-----------------------------------------------|
B|-----------------------------------------------|
G|-4--4-6/8-4----6--6-8-6-h8p6\4----7-6---6-4--6-|
D|--------------------------------------7--------|
A|-----------------------------------------------|
E|-----------------------------------------------|


0:21
e|-----------------------------------------------------|
B|-----------------------------------------------------|
G|---4-6----4-6----4-6----4-6-/13--8-6-4-6-h8p6\4------|
D|-4------4------5------5--------------------------4-6-|
A|-----------------------------------------------------|
E|-----------------------------------------------------|

e|-----------------------------------------------|
B|-----------------------------------------------|
G|-4--4-6/8-4----6--6-8-6-h8p6\4----7-6---6-4--6-|
D|--------------------------------------7--------|
A|-----------------------------------------------|
E|-----------------------------------------------|


1:03
e|-----------------------------------------------------|
B|-7---------------------------------------------------|
G|----4-6-4----4-6---8p6\4-------4-6/9--8--9p8\6--4----|
D|-----------4----------------4---------------------4--|
A|-----------------------------------------------------|
E|-----------------------------------------------------|

e|----------------------------------/7-6-----------------|
B|-7-------------------------/7----------7---------------|
G|----4-6-4----4-6---8p6\4-------4----------8-6-44-6-4---|
D|-----------4-----------------------------------------4-|
A|-------------------------------------------------------|
E|-------------------------------------------------------|


==== Legend ====

/ = slide
h = hammer-on
p = pull-off
b = bend
br = bend release
+ = natural harmonic
* = artificial harmonic


            
            
Suggest correction
Creating personal tab
Creating personal tab
You can edit any tab online and save it as your Personal.

You can edit, replace or remove any tab part or add personal notes – all changes will be seen only by you.

Personal tabs can be accessed anytime from any device, even offline.
Learn more »
comments
print report bad tab
6 comments total. Showing first comments.
0 reply
zhung32 289 Jun 14, 2016 09:29 PM, edited on June 15 2016, 01:31 am

Can I have the tabs of 0:00 of hopes and dreams?
And also 0:42 of SAVE The World

0 reply
benjamin.niklas.koerner 20 Sep 22, 2016 08:34 PM

Where are the awesome distorted guitar parts? It looks like you only tabbed the melody and not the chords. Good tab though.

0 reply
samgoode6 10 Apr 11, 2017 02:13 PM

At 0:21 of save the world, you can play the

e|-----------------------------------------------------|
B|-----------------------------------------------------|
G|---4-6----4-6----4-6----4-6-/13--8-6-4-6-h8p6\4------|
D|-4------4------5------5--------------------------4-6-|
A|-----------------------------------------------------|
E|-----------------------------------------------------|
like
e|-----------------------------------------------------|
B|-----------------------------9-----------------------|
G|---4-6----4-6----4-6----4-6------8-6-4-6-h8p6\4------|
D|-4------4------5------5--------------------------4-6-|
A|-----------------------------------------------------|
E|-----------------------------------------------------|

See i changed the 13 to a 9 on the string above it. You obviously can't slide it like that, but it's FAR easier to reach.I guess you could side up a string if you're good, but if you can do that you can probably play it normally anyway.

guest
You may want to rate the tab now too:
select rating
Wanna post a correction for this tab? Suggest correction