Oops, an error
Loading. Please wait.

Undertale - Megalovania bass

version 3
version 3

Whole song

3,556 views 33 this week
no commentswrite comment
1 2 3 4 5
x 6
add to favorites
×
Save as Personal and add changes to this tab that will be seen only by you. Learn more ›
×
You can save this tab as Personal to edit and correct it or add notes. All changes will be seen only by you. Learn more »
launch autoscroll
font size
0
reset
guitar tuner
edit
Autoscroll
slow
fast
+/-
esc
set tempo
stop
Author
Unregistered
About this tab version
Bass solo version of the song. Was this info helpful? Yes No
[Part 1]

G|-------7-----------------------------------------|-------7-----------------------------------------|
D|----------7--6--5-----------5--------------------|----------7--6--5-----------5--------------------|
A|-5--5--------------8--5--8-----------------------|-------------------8--5--8-----------------------|
E|-------------------------------------------------|-8--8--------------------------------------------|

G|-------7-----------------------------------------|-------7-----------------------------------------|
D|----------7--6--5-----------5--------------------|----------7--6--5-----------5--------------------|
A|-------------------8--5--8-----------------------|-------------------8--5--8-----------------------|
E|-7--7--------------------------------------------|-6--6--------------------------------------------|

G|-------7-----------------------------------------|-------7-----------------------------------------|
D|----------7--6--5-----------5--------------------|----------7--6--5-----------5--------------------|
A|-5--5--------------8--5--8-----------------------|-------------------8--5--8-----------------------|
E|-------------------------------------------------|-8--8--------------------------------------------|

G|-------7-----------------------------------------|-------7-----------------------------------------|
D|----------7--6--5-----------5--------------------|----------7--6--5-----------5--------------------|
A|-------------------8--5--8-----------------------|-------------------8--5--8-----------------------|
E|-7--7--------------------------------------------|-6--6--------------------------------------------|

G|-------7-----------------------------------------|-------7-----------------------------------------|
D|----------7--6--5-----------5--------------------|----------7--6--5-----------5--------------------|
A|-5--5--------------8--5--8-----------------------|-------------------8--5--8-----------------------|
E|-------------------------------------------------|-8--8--------------------------------------------|

G|-------7-----------------------------------------|-------7-----------------------------------------|
D|----------7--6--5-----------5--------------------|----------7--6--5-----------5--------------------|
A|-------------------8--5--8-----------------------|-------------------8--5--8-----------------------|
E|-7--7--------------------------------------------|-6--6--------------------------------------------|

G|-------7-----------------------------------------|-------7-----------------------------------------|
D|----------7--6--5-----------5--------------------|----------7--6--5-----------5--------------------|
A|-5--5--------------8--5--8-----------------------|-------------------8--5--8-----------------------|
E|-------------------------------------------------|-8--8--------------------------------------------|

G|-------7-----------------------------------------|-------7-----------------------------------------|
D|----------7--6--5-----------5--------------------|----------7--6--5-----------5--------------------|
A|-------------------8--5--8-----------------------|-------------------8--5--8-----------------------|
E|-7--7--------------------------------------------|-6--6--------------------------------------------|

G|-------------------------------------------------|-------------------------------------------------|
D|-------------------------------------------------|----------------------------------------12-12-12-|
A|/8--8--8--8--8----------/8--8--8--10-11-10-11-10-|-8-----8--10---/8--8--8--10-11-12-15-12----------|
E|----------------10-10~---------------------------|----10-------------------------------------------|

G|-------------------------------------------------|-----------------------------------|
D|----12-10~---------------------------------------|--------12----------12-------------|
A|-12---------/8--8--8--8--8----------/8--8--8--8--|-10-12------12--10------12--10--8--|
E|----------------------------10-10~---------------|-----------------------------------|

G|--------------------------------|
D|-10-------------------7--8--10~-|
A|----10-8--7--7--8--10-----------|
E|--------------------------------|

G|-----------------|-------------------------------------------------|
D|-----------------|-------------------------------------10----------|
A|--8-----8--10-11-|-10-8-----11-10-8-----8--10~---11-12----12-11-10-|
E|-----10----------|-------10----------10----------------------------|

G|----------------------------------------------|-------------------------------------------------|
D|----------------7--10/11----------------------|-------0--3--2--0--5--7--10--7/12~---------------|
A|-8-----7--8--10----------11-11-10-8--10~------|-------------------------------------------------|
E|----10----------------------------------------|-1--5--------------------------------------------|

G|-------------------------------------------------|
D|-------------------------------------------------|
A|--12-11-10-9-------------------------------------|
E|-------------13-12-11-10-9~-11~------------------|

G|-----------------|-------------------------------------------------|
D|-----------------|-------------------------------------10----------|
A|--8-----8--10-11-|-10-8-----11-10-8-----8--10~---11-12----12-11-10-|
E|-----10----------|-------10----------10----------------------------|

G|----------------------------------------------|-------------------------------------------------|
D|----------------7--10/11----------------------|-------0--3--2--0--5--7--10--7/12~---------------|
A|-8-----7--8--10----------11-11-10-8--10~------|-------------------------------------------------|
E|----10----------------------------------------|-1--5--------------------------------------------|

G|-------------------------------------------------|
D|-------------------------------------------------|
A|--12-11-10-9-------------------------------------|
E|-------------13-12-11-10-9~-11~------------------|

G|-------------------------------------------------|
D|-------------------------------------------------|x2
A|-------------------------------------------------|
E|-6~----13-12-10-13~---6~----13-12-10-10~\\\------|


[Part 2]

G|-------19----------------------------------------|-------19----------------------------------------|
D|----------19-18-17-15----15-17-------------------|----------19-18-17-15----15-17-------------------|
A|-17-17----------------17-------------------------|-15-15----------------17-------------------------|
E|-------------------------------------------------|-------------------------------------------------|

G|-------19----------------------------------------|-------19----------------------------------------|
D|----------19-18-17-15----15-17-------------------|----------19-18-17-15----15-17-------------------|
A|-14-14----------------17-------------------------|-13-13----------------17-------------------------|
E|-------------------------------------------------|-------------------------------------------------|

G|-------19----------------------------------------|-------19----------------------------------------|
D|----------19-18-17-15----15-17-------------------|----------19-18-17-15----15-17-------------------|
A|-17-17----------------17-------------------------|-15-15----------------17-------------------------|
E|-------------------------------------------------|-------------------------------------------------|

G|-------19----------------------------------------|-------19----------------------------------------|
D|----------19-18-17-15----15-17-------------------|----------19-18-17-15----15-17-------------------|
A|-14-14----------------17-------------------------|-13-13----------------17-------------------------|
E|-------------------------------------------------|-------------------------------------------------|

G|-------------------------------------------------|----------------------------------17----19-19-19-|
D|/15-15-15-15-15---------/15-15-15-17-18-17-18-17-|-15----15-17---/15-15-15-17-18-19----19----------|
A|----------------17-17~---------------------------|----17-------------------------------------------|
E|-------------------------------------------------|-------------------------------------------------|

G|----19-17~---------------------------------------|--------19----------19-------------|
D|-19---------/15-15-15-15-15---------/15-15-15-15-|-17-19------19--17------19--17--15-|
A|----------------------------17-17~---------------|-----------------------------------|
E|-------------------------------------------------|-----------------------------------|

G|-17-------------------14-15-17~-|
D|----17-15-14-14-15-17-----------|
A|--------------------------------|
E|--------------------------------|

G|-----------------|-------------------------------------17----------|
D|--15----15-17-18-|-17-15----18-17-15----15-17----18-19----19-18-17-|
A|-----17----------|-------17----------17----------------------------|
E|-----------------|-------------------------------------------------|

G|----------------14-17/18-------------------------|-------------------12-14-17-14/19~---------------|
D|-15----14-15-17-------------18-18-17-15-17~------|-------12-15-14-12-------------------------------|
A|----17-------------------------------------------|----12-------------------------------------------|
E|-------------------------------------------------|-13----------------------------------------------|

G|-14-13-12-11-------------------------------------|
D|-------------15-14-13-12-11~-13~-----------------|
A|-------------------------------------------------|
E|-------------------------------------------------|

G|-----------------|-------------------------------------17----------|
D|--15----15-17-18-|-17-15----18-17-15----15-17----18-19----19-18-17-|
A|-----17----------|-------17----------17----------------------------|
E|-----------------|-------------------------------------------------|

G|----------------14-17/18-------------------------|-------------------12-14-17-14/19~---------------|
D|-15----14-15-17-------------18-18-17-15-17~------|-------12-15-14-12-------------------------------|
A|----17-------------------------------------------|----12-------------------------------------------|
E|-------------------------------------------------|-13----------------------------------------------|

G|-14-13-12-11-------------------------------------|
D|-------------15-14-13-12-11~-13~-----------------|
A|-------------------------------------------------|
E|-------------------------------------------------|

G|-------------------------------------------------|
D|-------------------------------------------------|x2
A|-------------------------------------------------|
E|-6~----13-12-10-13~---6~----13-12-10-10~\\\------|


***********************************
| \   Slide down
| ~   Vibrato
***********************************

            
            
Suggest correction
Creating personal tab
Creating personal tab
You can edit any tab online and save it as your Personal.

You can edit, replace or remove any tab part or add personal notes – all changes will be seen only by you.

Personal tabs can be accessed anytime from any device, even offline.
Learn more »
comments
print report bad tab
guest
Wanna post a correction for this tab? Suggest correction