Oops, an error
Loading. Please wait.

Undertale - My Best Nightmare Bass Tab

49 views 6 this week
no commentswrite comment
1 2 3 4 5
3 more votes to show rating
add to favorites
launch autoscroll
font size
0
reset
guitar tuner
Autoscroll
slow
fast
+/-
esc
set tempo
stop
Help us to improve Ultimate-Guitar.com Take our survey!
×
Author
Difficulty
Tuning
advanced
B E A D F# B
Undertale (by Toby Fox) - My Best Nightmare

Tabbed by: Ash (XxThreeCheersxX)
email: burdickash@gmail.com

Finally posting this after starting (and forgetting) about this a year ago.

This is a long, fast (and complicated) song, but I tried to make it as easy to read as possible.  
I've tabbed the actual bassline, and a couple additional bits.

Introduction (no bass)
D|-----------------------------------------|
A|-----------3~------------------4~--------|
E|-6----5--------------6----5--------------| x 2
B|-----------------------------------------|

(Laughter)

Riff A x 3
D|---------------------------------|
A|-1-----3-0-------3-------2-------|
E|---4-2-----3-------0-1-2-----0-2-|
B|-------------4-2-----------4-----|

D|---------------------------------|
A|-1-----3-0-------1-----3-0-------|
E|---4-2-----3-------4-2-----3-----|
B|-------------4-2-------------4-2-|

D|---------------------------------|
A|-3-------2-------2-0---4-1-------|
E|---0-1-2-----0-2-----3-----4-0---|  
B|-----------4-------------------3-|

-Static-

Melody 1(keyboard)
D|-----17------17------17------17--|
A|-18--------------18--------------|
E|---------18--------------18------| x 2
B|---------------------------------|

D|-----17------17------20-----20------17------17--------------20--|
A|-18--------------20-------------18------------------18--20------|
E|---------18-------------18--------------18------16--------------|
B|----------------------------------------------------------------|

D|-----17------17-------------------------------------------------|
A|-18------------------20--17--17------15------17--18-------------|
E|---------18------16--------------16------18---------------------|  (static)
B|----------------------------------------------------------------|

Melody 2 (don't play) 

(static)

Riff B
D|-0-----0------------------------0-----0------------------0---1-|
A|---------3---1--------4-------4---------3---1--------4-----0---|
E|-----4-----2---0----3---3---3-------4-----2---0----3---4-------| x 4
B|---3--------------1-------1-------3--------------1-------------|

D|-0-----0------------------------0-----0------------------------|
A|---------3---1--------4-------4---------3---1--------4-------4-|
E|-----4-----2---0----3---3---3-------4-----2---0----3---3---3---|
B|---3--------------1-------1-------3--------------1-------1-----|

D|-0-----0------------------0---1-|
A|---------3---1--------4-----0---|
E|-----4-----2---0----3---4-------| (static)
B|---3--------------1-------------|

Melody 3 (actual bass)
D|---------7-5-1-3---1-------------|
A|-----------------2---0-4---2---0-|
E|---1-3-------------------3---1---| (then stop)
B|-4-----2-------------------------|

(static)

Melody 4 (don't play)

(static)

Riff C
D|-----------------|
A|-1-----3-0-------|
E|---4-2-----3-----| x 7
B|-------------4-2-|

D|-----------------|
A|-2-0---4-1-0-----|
E|-----3-------0---| x 7
B|---------------3-|

D|-----------------|
A|-1-----3-0-------|
E|---4-2-----3-----| x 7
B|-------------4-2-|

D|-----------------|
A|-2-0---4-1-0-----|
E|-----3-------0---| x 7
B|---------------3-|

D|-----------------|
A|-----------------|
E|-----------------| (static)
B|-2~--------------|

Melody 5 
D|-------14--------14--------14--------14--|
A|----14--------14--------15--------15-----|
E|-12--------12--------13--------13--------|  x 6 
B|-----------------------------------------|

(static)

Melody 6 (no bass)

(static)

Riff A x 3
D|---------------------------------|
A|-1-----3-0-------3-------2-------|
E|---4-2-----3-------0-1-2-----0-2-|
B|-------------4-2-----------4-----|

D|---------------------------------|
A|-1-----3-0-------1-----3-0-------|
E|---4-2-----3-------4-2-----3-----|
B|-------------4-2-------------4-2-|

D|---------------------------------|
A|-3-------2-------2-0---4-1-------|
E|---0-1-2-----0-2-----3-----4-0---|  
B|-----------4-------------------3-|

(static)

Happy playing!

**************************************

| x   Dead note
| g   Grace note
| (n) Ghost note
| h   Hammer-on
| p   Pull-off
| r   Release
| >   Accented note
| t   Tapping
| b   Bend
| br  Bend release
| pb  Pre-bend
| pbr Pre-bend release
| /   Slide up
| \   Slide down
| ~   Vibrato
| s   Slap
| P   Pop
| PM  Palm mute
| TR  Trill
| N   Tremolo

************************************
Suggest correction
Give kudos to tab author, rate the tab!
1 2 3 4 5
comments
print report bad tab
guest
You may want to rate the tab now too:
select rating
Wanna post a correction for this tab? Suggest correction