Oops, an error
Loading. Please wait.

Undertale - Shop Tab

211 views 1 this week
2 commentsread comments
1 2 3 4 5
2 more votes to show rating
add to favorites
launch autoscroll
font size
0
reset
how to read this tab
guitar tuner
Autoscroll
slow
fast
+/-
esc
set tempo
stop
Help us to improve Ultimate-Guitar.com Take our survey!
×
Author
About this tab version
This version is a classical guitar arrangement which intends to stay as true to the original as possible - for the most part it is note-for-note and includes more than just a simple melody, but finger picking for all parts. Was this info helpful? Yes No
Undertale Shop Theme - Toby Fox
(Classical Guitar arrangement by OmegaLesPaul)
  
Tuning: E A D F# B e

If you'd like to play the piece in it's original key, just capo first fret.

General rule of thumb for right hand fingerings:

"Top" voice (the melody) is played by alternating m and a (middle and ring finger)
"Middle" voice (the thirds/sets of two notes throughout) are played with p and i (thumb and index finger)
"Bass" voice (the bassline. It never leaves the low E string) is played only with p (the thumb)

The piece was intended to be as close to the original as could possibly be done on the guitar. 
There are many arrangements of this theme "on classical guitar," but none of them took advantage 
of what the classical guitar can do, which is playing multiple parts at the same time. 
This one is meant to stay true to what Toby originally had intended for the piece. 

The fingering is really important, and I've tried to discuss some of it here. 
If there are any questions about what I wrote, please feel free to ask me.


  Barre 8_________ Barre 7_______________ Barre 5_______

e |--10----------------7------7---------|------------5-----------------|
B |-------------8--10-----10-----10--8--|--7------8-------3------------|
F#|----------8--------------------------|--------------------1--3--1---|
D |------9---9---------7-------------7--|------5-----5-------0--4--2---|
A |------10--10--------9-------------9--|------7-----7-----------------|
E |--8-------------7--------------------|--5--------------3------------|

  Barre 8_________ Barre 7_______________ Barre 5_______  

e |--10----------------7------7---------|------------5-------------0---||
B |-------------8--10-----10-----10--8--|--7------8-------8-----7--0---||
F#|----------8--------------------------|--------------------8--8-----*|| Asterisk are here to denote a repeat
D |------9---9---------7-------------7--|------5-----5-------9--------*||
A |------10--10--------9-------------9--|------7-----7----7------------||
E |--8-------------7--------------------|--5---------------------------||

  Barre 8__________________________

e |------10--10--10--10--8------8--|-10*-----14------10-----------|
B |-------------------------12-----|------------------------------| *At the 8 + 10, the 8 is played w/ 
F#|--------------------------------|------------------------------|  your middle finger, 10 w/ pinky,
D |------9-------9-------9------9--|------7--------------7--7-----|  pinky then slides up for 14 and 
A |------10------10------10-----10-|------9------12------9--9-----|  index and middle are used for the
E |--8---------------8-------------|-8*----------14--8------------|  12 + 14th frets on E/A strings

Barre 7__________________________                Barre 5_____________

e |------10--10--10---10--8--7--8--|-10*--------------------5---------|
B |--------------------------------|----------------------5-----------| *If your hand is large enough, you can
F#|--------------------------------|----------------------------------|  finger the 7 + 10 w/ middle on the 7
D |------7-------7--------7-----7--|------6---6-------6---6-----------|  and pinky on 10 - this allows you to
A |------9-------9--------9-----9--|------7---7-------7---7-----------|  use your index and ring fingers on
E |--7----------------7------------|-7*-----------7-------------------|  the 6th/7th frets, respectively.
                                                                         If you cannot make the 7 + 10 
                                                                         middle/pinky stretch (I can't),
                                                                         then you can use index/pinky.

Barre 5_____________________  Barre 7______________________

e |--7--7--7--7--7--5--------|----7--7--7--7------7--10----|
B |--------------------8--5--|----------------10-----------|
F#|--------------------------|-----------------------------|
D |-----5-----5-----5-----5--|----7-----7-----7------7-----|
A |-----7-----7-----7-----7--|----9-----9-----9------9-----|
E |--5-----------5-----------|-7-----------7---------------|



e |--12-----------------7----|-5-----------2--0---------||
B |------------------------8-|-3--------3---------------||
F#|--------------------------|----0--3-----4--0--------*|| Repeat back to intro - the track technically is
D |------9----9--------------|-------------------------*|| on loop for as long as you are in whichever shop.
A |------10---10-------------|--------------------------||
E |--8-------------8---------|--------------------------||
Suggest correction
Give kudos to tab author, rate the tab!
1 2 3 4 5
comments
print report bad tab
2 comments total.
0 reply
zdoulis1 59 Oct 26, 2016 08:16 AM, edited at 08:17 am

Could you post a version in standard tuning? Great tab by the way, it's refreshing to see such a detailed tab that time has obviously been invested in for more than 5 minutes

0 reply
OmegaLesPaul 30 Oct 30, 2016 06:41 PM

A standard tuning tab is probably possible - I just thought it'd be easier to do it with the one tuning change. Also, revisiting the tab, it's probably possible to do the whole song without needing a capo, I'm sure you can replace all of the open strings I have with fretted notes.

guest
You may want to rate the tab now too:
select rating
Wanna post a correction for this tab? Suggest correction