Oops, an error
Loading. Please wait.

Undertale - Song That Might Play When You Fight Sans intro tab

version 1
version 1

Intro

Interactive

3,034 views 15 this week
1 commentread comment
1 2 3 4 5
x 3
add to favorites
×
Save as Personal and add changes to this tab that will be seen only by you. Learn more ›
×
You can save this tab as Personal to edit and correct it or add notes. All changes will be seen only by you. Learn more »
launch autoscroll
font size
0
reset
how to read this tab
guitar tuner
edit
Autoscroll
slow
fast
+/-
esc
set tempo
stop
Author
Difficulty
Tuning: E A D G B e

e|-15---13---15------------------15---13-------------------------------------|
B|-------------------------------------------15---13---11--------------------|
G|----------------10---11---12------------------------------12---------------|
D|---------------------------------------------------------------------------|
A|---------------------------------------------------------------------------|
E|---------------------------------------------------------------------------|

e|---------------------------------------------------------------------------|
B|-13---11---13------------------13-------------14-------------15------------|
G|----------------10---11---12--------11---12--------11---12-----------------|
D|---------------------------------------------------------------------------|
A|---------------------------------------------------------------------------|
E|---------------------------------------------------------------------------|

e|-15---13---15------------------15---13-------------------------------------|
B|-------------------------------------------15---13---11--------------------|
G|----------------10---11---12------------------------------12---------------|
D|---------------------------------------------------------------------------|
A|---------------------------------------------------------------------------|
E|---------------------------------------------------------------------------|

e|---------------------------------------------------------------------------|
B|-13---11---13------------------13-------------14-------------15------------|
G|----------------10---11---12--------11---12--------11---12-----------------|
D|---------------------------------------------------------------------------|
A|---------------------------------------------------------------------------|
E|---------------------------------------------------------------------------|

e|-11---10---11---11---13---14-----------------------------------------------|
B|-------------------------------13---11-------------------------------------|
G|-----------------------------------------12---13---15----------------------|
D|---------------------------------------------------------------------------|
A|---------------------------------------------------------------------------|
E|---------------------------------------------------------------------------|

e|---------------------------------------------------------------------------|
B|-13---11---13---13---11---13---11---15---13---13---11----------------------|
G|---------------------------------------------------------------------------|
D|---------------------------------------------------------------------------|
A|---------------------------------------------------------------------------|
E|---------------------------------------------------------------------------|

e|-11---10---11---11---13---14-----------------------------------------------|
B|-------------------------------13---11-------------------------------------|
G|-----------------------------------------12---13---15----------------------|
D|---------------------------------------------------------------------------|
A|---------------------------------------------------------------------------|
E|---------------------------------------------------------------------------|

e|------------------------------------------14---15---17---------------------|
B|-13---11---13---13---11---13---11---13-------------------------------------|
G|---------------------------------------------------------------------------|
D|---------------------------------------------------------------------------|
A|---------------------------------------------------------------------------|
E|---------------------------------------------------------------------------|

            
            
Suggest correction
Creating personal tab
Creating personal tab
You can edit any tab online and save it as your Personal.

You can edit, replace or remove any tab part or add personal notes – all changes will be seen only by you.

Personal tabs can be accessed anytime from any device, even offline.
Learn more »
Give kudos to tab author, rate the tab!
1 2 3 4 5
comments
print report bad tab
1 comment total.
0 reply
dnasynch 84 Mar 02, 2016 07:10 PM

Can't play it right now but will check this out later, seems cool, I just wish you could've added in the Papyrus bits lol.

guest
You may want to rate the tab now too:
select rating
Wanna post a correction for this tab? Suggest correction