Oops, an error
Loading. Please wait.

Undertale - Spider Dance tab

version 1
version 1

Whole song

  • A fingerstyle arrangement of the song Spider Dance from UNDERTALE.

Interactive

1,591 views 51 this week
no commentswrite comment
1 2 3 4 5
1 last vote to show rating
add to favorites
×
Save as Personal and add changes to this tab that will be seen only by you. Learn more ›
×
You can save this tab as Personal to edit and correct it or add notes. All changes will be seen only by you. Learn more »
launch autoscroll
font size
0
reset
how to read this tab
guitar tuner
edit
Autoscroll
slow
fast
+/-
esc
set tempo
stop
Author
Difficulty
About this tab version
A fingerstyle arrangement of the song Spider Dance from UNDERTALE. Was this info helpful? Yes No
Spider Dance                                           
Song By Toby Fox
Arranged By John Lee

     E  S S E  E     S S E  S S S S    S S S S S S S S    S S S S S S S S    E  S S E  S S  
e|--0------------|-----------------|------------------|--------0---------|----------------|
B|-----0---------|-----------------|----0-------0-----|------------3-0---|----------------|
G|---------0-----|----3-2--2-0-----|------2-0-2-------|--0-------------0-|----------------|
D|--2----2----2--|-------------1-2-|--------------1-2-|----2-1-----------|--2------4------|
A|-----2---------|--3------2-------|------------------|------------------|--3--3-3----3-3-|
E|---------------|-----------------|--0-------1-------|--3-------2-------|----------------|

    E  S S E  S S    E  E  E  E     E  S S S S E     S S S S S S S S    S S  S S S S S S  
e|----------------|--------0-----|----------------|--0-7-5-7-0-7-5-7-|--0-6--5-6---7---5-|
B|----------------|--0--------0--|--4--1---0------|------------------|---------------7---|
G|--0------2------|-----2--------|----------------|----------0-------|-----------7-------|
D|----------------|--------------|----------------|------------------|-------------------|
A|--3--3-3----3-3-|--2--------2--|--2----2---4-6--|--7---------------|-------------------|
E|----------------|--------------|----------------|------------------|----6p-5-----------|

    S S S S S S S S    S S  S S  S S T T S    S S S S S S S S    S S S S S S S S    E  E  E  E   
e|----7-5-7---7-5-7-|----7----7----8-7---8-|----3-2-3---5-3-5-|----7-5-7---8-7-8-|--------0-----|
B|--5-------5-------|--8---10---10---------|--1-------3-------|------------------|--0--------0--|
G|------------------|---------9----7-----0-|------------------|----------7-------|-----2--------|
D|------------------|----------------9-7---|----------4-------|--7---------------|--------2-----|
A|------------------|----------------------|------------------|------------------|-----2-----2--|
E|--5---------------|----------------------|--0---------------|--3-------5-------|--0-----------|

    E  E  E  E     E  S S E  E     S S E  S S S S    S S S S S S S S    S S S S S S S S  
e|--------------|--0------------|-----------------|------------------|--------0---------|
B|--4--1--0-----|-----0---------|-----------------|----0-------0-----|------------3-0---|
G|--------------|---------0-----|----3-2--2-0-----|------2-0-2-------|--0-------------0-|
D|--1--------1--|--2----2----2--|-------------1-2-|--------------1-2-|----2-1-----------|
A|-----3--2-----|-----2---------|--3------2-------|------------------|------------------|
E|--------------|---------------|-----------------|--0-------1-------|--3-------2-------|

    E  S S E  S S    E  S S E  S S    E  E  E  E     E  S S S S E     S S S S S S S S  
e|----------------|----------------|--------0-----|----------------|--0-7-5-7-0-7-5-7-|
B|----------------|----------------|--0--------0--|--4--1---0------|------------------|
G|----------------|--0------2------|-----2--------|----------------|----------0-------|
D|--2------4------|----------------|--------------|----------------|------------------|
A|--3--3-3----3-3-|--3--3-3----3-3-|--2--------2--|--2----2---4-6--|--7---------------|
E|----------------|----------------|--------------|----------------|------------------|

    S S  S S S S S S    S S S S S S S S    S S  S S  S S T T S    S S S S S S S S  
e|--0-6--5-6---7---5-|----7-5-7---7-5-7-|----7----7----8-7---8-|----3-2-3---5-3-5-|
B|---------------7---|--5-------5-------|--8---10---10---------|--1-------3-------|
G|-----------7-------|------------------|---------9----7-----0-|------------------|
D|-------------------|------------------|----------------9-7---|----------4-------|
A|-------------------|------------------|----------------------|------------------|
E|----6p-5-----------|--5---------------|----------------------|--0---------------|

    S S S S S S S S    E   E   E  E      E  E  S S S S    E  E  E  E      E  S E.  E   
e|----7-5-7---8-7-8-|--7------12--7--|--11--8--7-8-7-8-|--7-----------|---------------|
B|------------------|-----10---------|-----------------|-----8--------|---8----7------|
G|----------7-------|----------------|-----------------|--------9-----|------9--------|
D|--7---------------|----------------|-----------------|-----------9--|---------------|
A|------------------|----------7-----|-----------------|--------7-----|--10----9---7--|
E|--3-------5-------|--0---7------7--|--11--8--7-------|--7-----------|---------------|

     E  S E.  E      E  S E  S S S    E  E  E  E      E   S E.  E      E   S E.  E   
e|---------------|-----------8-7-8-|--7-----------|----------------|----------------|
B|---8----7------|---8----7--------|-----8--------|---8--10-7------|---8--10-7------|
G|------9--------|------9----------|--------9-----|----------------|----------------|
D|---------------|-----------------|-----------9--|----------------|----------------|
A|--10----9---7--|--10----9--------|--------7-----|--10-----9---7--|--10-----9---7--|
E|---------------|-----------------|--7-----------|----------------|----------------|

     E   S E  S S S    E  E  E  E      E  S E.  E      E  S E.  E      E  S E  S S S  
e|---------7--8-7-8-|--7-----------|---------------|---------------|-----------8-7-8-|
B|---8--10----------|-----8--------|---8----7------|---8----7------|---8----7--------|
G|------------------|--------9-----|------9--------|------9--------|------9----------|
D|------------------|-----------9--|---------------|---------------|-----------------|
A|--10-----9----7---|--------7-----|--10----9---7--|--10----9---7--|--10----9--------|
E|------------------|--7-----------|---------------|---------------|-----------------|

    E   E   E  E     S E  E.  S S    S S E  E  E     E  E  Q       E  E  E  S S    E  E  E  S S  
e|--7--12---------|--5----5---3-5-|--6-5-3--0-----|-------------|--7------------|--3--0---------|
B|---------10--8--|----8----------|------------0--|--2--4--5----|-----8---------|--------1------|
G|----------------|---------------|---------------|-------------|--------9------|-----------0---|
D|----------------|--5----4-------|------1--1--1--|--------2----|-----------7-9-|---------------|
A|----------7-----|---------------|--3------------|--2----------|---------------|--0-----0----2-|
E|--7-------------|---------------|---------------|-------------|--0-----0------|---------------|

    S S S S S S E     S S S S S S S S    S S S S S S S S    S S S S S S S S  
e|------3---2-3-0--|----0---0-2---0-2-|--0---0-2-3-2-3-5-|--7-5-3-2-3-2-0-2-|
B|--1--------------|--4---4-----4-----|----0-------------|------------------|
G|----0---0--------|------------------|------------------|------------------|
D|-----------------|------------------|------------------|------------------|
A|--3-------3------|--2-------2-------|------------------|--0-------0---2-2-|
E|-----------------|------------------|--0-------0-------|------------------|

    S S  S S S  S S S     S S S  S Q       E  E  E  E      E  S E.  E      E  S E.  E   
e|------10---8-10-7-8-|-----7------7----|--7-----------|---------------|---------------|
B|----8---------------|--10---8-10------|-----8--------|---8----7------|---8----7------|
G|--9------9----------|-----------------|--------9-----|------9--------|------9--------|
D|--------------------|-----------------|-----------9--|---------------|---------------|
A|--------------------|-----------------|--------7-----|--10----9---7--|--10----9---7--|
E|--8--------8--------|---7--------7----|--7-----------|---------------|---------------|

     E  S E  S S S    E   E   E  E     S E  E.  S S    S S E  E  E     E  E  Q     
e|-----------8-7-8-|--7--12---------|--5----5---3-5-|--6-5-3--0-----|-------------|
B|---8----7--------|---------10--8--|----8----------|------------0--|--2--4--5----|
G|------9----------|----------------|---------------|---------------|-------------|
D|-----------------|----------------|--5----4-------|------1--1--1--|--------2----|
A|--10----9--------|----------7-----|---------------|--3------------|--2----------|
E|-----------------|--7-------------|---------------|---------------|-------------|

     E  S E  S E     E  S E  S E     S T T E  E  S S    Q    Q       E  S E  S E   
e|------5-3--5-3--|-----5-3--5-3--|--3-5-3-----------|------------|-----5-3--5-3--|
B|----------------|---------------|--------5--5--4-5-|--L---------|---------------|
G|*---------------|---------------|------------------|------------|---------------|
D|*---------------|---------------|--2---------------|--2---------|---------------|
A|---3------------|--3------------|------------------|------------|--3------------|
E|----------------|---------------|------------------|------------|---------------|

    E  S E  S E     E  E  S E  S    Q    Q         E  S E  S E     E  S S S S S S  
e|-----5-3--5-3--|--3--5--6-5--3-|--0----------||---------------|-----------------|
B|---------------|---------------|-------------||--5------------|--L------4-3-2-1-|
G|---------------|---------------|------------*||-----2-0--2-0--|-----2-0---2-0---|
D|---------------|--2------------|--2---------*||---------------|-----------------|
A|--3------------|---------------|-------------||---------------|-----------------|
E|---------------|---------------|-------------||---------------|-----------------|

    S S E  E  S S    Q    S S S S    E  S E  S E     E  S S S S E     E  E  S E  S    H         
e|----------------|---------------|---------------|---------3------|--2------------|--3--------|
B|--0-------------|--L----1-2-3-4-|--5------------|--L-------------|---------------|-----------|
G|--0-2-0---------|---------------|-----2-0--2-0--|-----2-0---2-0--|--0--2--3-2--0-|-----------|
D|---------2--1-2-|---------------|---------------|----------------|---------------|--2--------|
A|----------------|---------------|---------------|----------------|---------------|-----------|
E|----------------|---------------|---------------|----------------|---------------|-----------|

    E  S E  S E     E  S S S S E     E  E   S E   S    E.  T T  Q       E  E  E  E   
e|--0------------|----------------|--7--7--11-7-----|--7-------------|--7-----------|
B|---------------|----------------|--------------10-|----------------|-----8--------|
G|-----2-0--2-0--|-----2-0---2-0--|---------8-------|------8-9-11----|--------9-----|
D|---------------|----------------|--9--9-----9---7-|--9-------------|-----------9--|
A|---------------|----------------|-----------------|----------------|--7-----------|
E|---------------|----------------|-----------------|----------------|--------------|

    E  S E.  E      E  S E.  E     E  S S S S S S    E   E   E  E     S E  E.  S S  
e|--------------|---------------|-----------8-7-8-|--7--12---------|--5----5-----5-|
B|--8----7------|---8----7------|--8----7---------|---------10--8--|----8------8---|
G|-----9--------|------9--------|-----9-----------|----------------|---------------|
D|--7-----------|--10-----------|--9------9-------|----------------|--7------------|
A|--------------|---------------|-------------6---|--7-------------|---------------|
E|--------------|---------------|-----------------|----------------|---------------|

    S S E  E  E     E  E  Q       H          
e|--6-5-3--0-----|-------------|-----------||
B|------------0--|--2--4--5----|--L--------||
G|---------------|-------------|-----------||
D|------1--1--1--|-----1--2----|--L--------||
A|--3------------|--2----------|-----------||
E|---------------|-------------|-----------||

Duration Legend
---------------
W - whole
H - half
Q - quarter
E - 8th
S - 16th
T - 32nd
X - 64th
. - note dotted
|-n-|  - n-tuplets

************************************

| p  Pull-off

************************************

            
            
Suggest correction
Creating personal tab
Creating personal tab
You can edit any tab online and save it as your Personal.

You can edit, replace or remove any tab part or add personal notes – all changes will be seen only by you.

Personal tabs can be accessed anytime from any device, even offline.
Learn more »
Give kudos to tab author, rate the tab!
1 2 3 4 5
comments
print report bad tab
guest
You may want to rate the tab now too:
select rating
Wanna post a correction for this tab? Suggest correction