Oops, an error
Loading. Please wait.

Undertale - Undertale bass

version 1
version 1

Whole song

Interactive

2,578 views 6 this week
4 commentsread comments
1 2 3 4 5
x 4
add to favorites
×
Save as Personal and add changes to this tab that will be seen only by you. Learn more ›
×
You can save this tab as Personal to edit and correct it or add notes. All changes will be seen only by you. Learn more »
launch autoscroll
font size
0
reset
guitar tuner
edit
Autoscroll
slow
fast
+/-
esc
set tempo
stop
Author
Difficulty
Toby Fox - Undertale

Tabbed by: Ashy (XxThreeCheersxX)
E-mail: burdickash@gmail.com

Tuning: Standard

This is a very simple song, even though it's six minutes long... Happy playing!

Part I x a lot
G|-----------------------------------------------------------------------------------------|
D|-6----6----6----6----8----8----8----8----------------------------10----10----10----10----|
A|-----------------------------------------10----10----10----10----------------------------|
E|-----------------------------------------------------------------------------------------|

Part II (key change towards the very end)
G|-----------------------------------------------------------------------------------------|
D|-7----7----7----7----9----9----9----9----------------------------11----11----11----11----|
A|-----------------------------------------11----11----11----11----------------------------|
E|-----------------------------------------------------------------------------------------|


| /  slide up
| \  slide down
| h  hammer-on
| p  pull-off
| ~  vibrato
| +  harmonic
| x  Mute note
===============================================================================
Suggest correction
Creating personal tab
Creating personal tab
You can edit any tab online and save it as your Personal.

You can edit, replace or remove any tab part or add personal notes – all changes will be seen only by you.

Personal tabs can be accessed anytime from any device, even offline.
Learn more »
comments
print report bad tab
4 comments total. Showing first comments.
+1 reply
ninjawills 10 Feb 04, 2016 02:04 PM

So I was just playing along with these tabs and it seems part one is closer to this
Part I
G|-----------------------------------------------------------------------------------------|
D|-6----6----6----6----6----6----6----6----------------------------------------------------|
A|-----------------------------------------10----10----10----10----10----10----10----10----|
E|-----------------------------------------------------------------------------------------|

G|-------------------------------------------------------------------------------------|
D|-6----6----6----6----6----6----6----6----8----8----8----8----10----10----10----10----|
A|-------------------------------------------------------------------------------------|
E|-------------------------------------------------------------------------------------|

0 reply
Sassy_Bandit 32 Apr 10, 2016 08:28 AM

ninjawills, I agree with that. What you posted is spot on to the first half of the song, before the (flute?) solo part with no bass. Then it jumps to this tab. c:

0 reply
XxThreeCheersxX 13,177 Apr 25, 2016 04:21 PM

yes, its been a while since i posted this, but i do believe i only tabbed the part where the bass comes in! thanks for your comments!

guest
You may want to rate the tab now too:
select rating
Wanna post a correction for this tab? Suggest correction