Oops, an error
Loading. Please wait.

Undertale - Undertale tab

version 1
version 1

Whole song

Interactive

65,002 views 36 this week
15 commentsread comments
1 2 3 4 5
x 14
add to favorites
×
Save as Personal and add changes to this tab that will be seen only by you. Learn more ›
×
You can save this tab as Personal to edit and correct it or add notes. All changes will be seen only by you. Learn more »
launch autoscroll
font size
0
reset
how to read this tab
guitar tuner
edit
Autoscroll
slow
fast
+/-
esc
set tempo
stop
Author
Unregistered
-------------------------------------------------------------------------------
                             "Undertale" by Toby Fox
-------------------------------------------------------------------------------
Tabbed by: Mettaton

Tuning: Standard (EADGBe)

First tab I've done, but it was fairly easy to figure out. Hope you like it.

e|----------------------------------------------------------------------------------------|
B|-----10--8-----7-7-8--------8-----7-7-8-------10--8-----7-7-8----8--10--12--10--8--8--10|
G|--8---------8-----------8------8-----------8---------8----------------------------------|
D|----------------------------------------------------------------------------------------|
A|----------------------------------------------------------------------------------------|
E|----------------------------------------------------------------------------------------|

Melody at at 2:50

e|----------------------------------12---11-10-8-----|
B|--------11--9--8-------------8---------------------|
G|--10--------------10--9--10------------------------|
D|---------------------------------------------------|
A|---------------------------------------------------|
E|---------------------------------------------------|

e|---------------------------------------------------|
B|---------------------------------------------------|
G|--------11--8-------------8------------------------|
D|--10-----------10--8--10-----7----10----10--8--7--8|
A|---------------------------------------------------|
E|---------------------------------------------------|

            
            
Suggest correction
Creating personal tab
Creating personal tab
You can edit any tab online and save it as your Personal.

You can edit, replace or remove any tab part or add personal notes – all changes will be seen only by you.

Personal tabs can be accessed anytime from any device, even offline.
Learn more »
comments
print report bad tab
15 comments total. Showing first comments.
-1 reply
mikerubabvb 10 Nov 21, 2015 03:34 PM

The common name for this song is "His theme". Other than that this is pretty accurate. great job.

0 reply
eli.nerdmeyer 10 Dec 30, 2015 08:15 AM

I would change the 8 on t at the beginning to 7 I feel like it's a bit more accurate

0 reply
mrragnarxx 10 Feb 10, 2016 03:18 AM

not only the tab is completely wrong, it also lacks bass notes that come along with the highs. it'd be good for people who just started out, if only it wasnt so wrongl

guest
Wanna post a correction for this tab? Suggest correction