Oops, an error
Loading. Please wait.

Undertale - Undertale tab

version 3
version 3

Whole song

Interactive

6,643 views 36 this week
2 commentsread comments
1 2 3 4 5
x 8
add to favorites
×
Save as Personal and add changes to this tab that will be seen only by you. Learn more ›
×
You can save this tab as Personal to edit and correct it or add notes. All changes will be seen only by you. Learn more »
launch autoscroll
font size
0
reset
how to read this tab
guitar tuner
edit
Autoscroll
slow
fast
+/-
esc
set tempo
stop
I did this using the 'mus_endarea_parta.ogg' file from the soundtrack.
Use the thumb on the 4th string and practice the timing!

Capo on 4th fret (in-game is on the 1st and then 2nd)


 |       |       |       |       |       |       |       |       
|----0-----------------------------------------------------------|
|--------3-------2-----2-----3-----------3-------2-----2-----3---|
|2-----------2-----------------------2-------2-------------------|
|----0-------0-------0-------0-------0-------0-------0-------0---|
|----------------------------------------------------------------|
|----------------------------------------------------------------|
 
 |       |       |       |       |       |       |       |          
|----0---------------------------------------2---0-----------0---|
|--------3-------2-----2-----3-----------3-------------3---------|
|2-----------2-----------------------2---------------------------|
|----0-------0-------0-------0-------0-------0-------0-------0---|
|----------------------------------------------------------------|
|----------------------------------------------------------------|

4 times until the piano part arrives:

|----------------5-----------------------------------------------|
|--------------------------------5-------------------------------|
|2---------------------------------------------------------------|
|----------------------------------------------------------------|
|----------------------------------------------------------------|
|----------------------------------------------------------------|
        
|----------------5-----------------------------------------------|
|3---------------------------------------------------------------|
|--------------------------------2-------------------------------|
|----------------------------------------------------------------|
|----------------------------------------------------------------|
|----------------------------------------------------------------|

|--------------------------------5-----------------------7-------|
|----------------2-----------------------------------------------|
|2---------------------------------------------------------------|
|----------------------------------------------------------------|
|----------------------------------------------------------------|
|----------------------------------------------------------------|

|5---------------------------------------------------------------|
|----------------5---------------3-------------------------------|
|----------------------------------------------------------------|
|----------------------------------------------------------------|
|----------------------------------------------------------------|
|----------------------------------------------------------------|

after 3 times:


|----10--9-----------------------|
|3-----------10--7---------------|
|--------------------9---7---2---|
|--------------------------------|
|--------------------------------|
|--------------------------------|

for lazy people (without capo but in same key):

|----14--13----------------------|
|7-----------14--11--------------|
|--------------------13--11---6--|
|--------------------------------|
|--------------------------------|
|--------------------------------|

            
            
Suggest correction
Creating personal tab
Creating personal tab
You can edit any tab online and save it as your Personal.

You can edit, replace or remove any tab part or add personal notes – all changes will be seen only by you.

Personal tabs can be accessed anytime from any device, even offline.
Learn more »
comments
print report bad tab
2 comments total.
+2 reply
Dinkelbeerg 21 Dec 08, 2015 03:53 PM

Thank you, this is perfect!

+2 reply
trollocat 10 Jul 28, 2016 12:19 PM

Awesome tab.

guest
You may want to rate the tab now too:
select rating
Wanna post a correction for this tab? Suggest correction