Oops, an error
Loading. Please wait.

Undertale - Undertale tab

version 4
version 4

Whole song

Interactive

9,484 views 348 this week
4 commentsread comments
1 2 3 4 5
x 4
add to favorites
×
Save as Personal and add changes to this tab that will be seen only by you. Learn more ›
×
You can save this tab as Personal to edit and correct it or add notes. All changes will be seen only by you. Learn more »
launch autoscroll
font size
0
reset
how to read this tab
guitar tuner
edit
Autoscroll
slow
fast
+/-
esc
set tempo
stop
Author
Difficulty
About this tab version
It's based off an arrangement by Justin.ly. He's neglected his fanbase and yet his rendition is the most accurate thing out there. Was this info helpful? Yes No
[Intro]

e|---1---------------1---------------1-------------------3-1-----1-----------|
B|-----4---3--3--4-----4---3--3--4-----4---3--3--4-----4------4--------------|
G|-------3---------------3---------------3-----------3-----------------------|
D|-1---1---1---1---1---1---1---1---1---1---1---1---1---1---1---1-------------|
A|---------------------------------------------------------------------------|
E|---------------------------------------------------------------------------|

e|---1---------------1---------------1-------------------3-1-----1-----------|
B|-----4---3--3--4-----4---3--3--4-----4---3--3--4-----4------4--------------|
G|-------3---------------3---------------3-----------3-----------------------|
D|-1---1---1---1---1---1---1---1---1---1---1---1---1---1---1---1-------------|
A|---------------------------------------------------------------------------|
E|---------------------------------------------------------------------------|


[Verse]

e|---1---------------1---------------1-------------------3-1-----1-----------|
B|-----4---3--3--4-----4---3--3--4-----4---3--3--4-----4------4--------------|
G|-------3---------------3---------------3-----------3-----------------------|
D|---1---1---1---1---1---1---1---1---1---1---1---1---1---1---1---1-----------|
A|---------------------------------------------------------------------------|
E|-4---4---4---4---4---4---4---4---3---3---3---3---3---3---3---3-------------|

e|---1---------------1---------------1-------------------3-1-----3-----------|
B|-----4---3--3--4-----4---3--3--4-----4---3--3--4-----4------4--------------|
G|-------3---------------3---------------3-----------3-----------------------|
D|---1---1---1---1---1---1---1---1---1---1---1---1---1---1---1---1-----------|
A|---------------------------------1---1---1---1---3---3---3---3-------------|
E|-4---4---4---4---4---4---4---4---------------------------------------------|

e|---1---------------1---------------1-------------------3-1-----1-----------|
B|-----4---3--3--4-----4---3--3--4-----4---3--3--4-----4------4--------------|
G|-------3---------------3---------------3-----------3-----------------------|
D|---1---1---1---1---1---1---1---1---1---1---1---1---1---1---1---1-----------|
A|---------------------------------------------------------------------------|
E|-4---4---4---4---4---4---4---4---3---3---3---3---3---3---3---3-------------|

e|---1---------------1---------------1-------------------3-1-----3-----------|
B|-----4---3--3--4-----4---3--3--4-----4---3--3--4-----4------4--------------|
G|-------3---------------3---------------3-----------3-----------------------|
D|---1---1---1---1---1---1---1---1---1---1---1---1---1---1---1---1-----------|
A|---------------------------------1---1---1---1---3---3---3---3-------------|
E|-4---4---4---4---4---4---4---4---------------------------------------------|


[Bridge]

e|---------6-------1-----------------------6---------------------------------|
B|-4-------------------------------4---------------1-------------------------|
G|---------------------------------------------------------------------------|
D|---1---1---1---1---1---1---1---1---1---1---1---1---1---1---1---1-----------|
A|---------------------------------------------------------------------------|
E|-4---4---4---4---4---4---4---4---3---3---3---3---3---3---3---3-------------|

e|-----------------6-----------------------6---------------------------------|
B|-1-------4-----------------------4---------------1-------------------------|
G|---------------------------------------------------------------------------|
D|---1---1---1---1---1---1---1---1---1---1---1---1---1---1---1---1-----------|
A|---------------------------------------------------------------------------|
E|-4---4---4---4---4---4---4---4---3---3---3---3---3---3---3---3-------------|

e|---------6-------1-----------------------6-------1-------------------------|
B|-4-------------------------------4-----------------------------------------|
G|---------------------------------------------------------------------------|
D|---1---1---1---1---1---1---1---1---1---1---1---1---1---1---1---1-----------|
A|---------------------------------------------------------------------------|
E|-4---4---4---4---4---4---4---4---3---3---3---3---3---3---3---3-------------|

e|---------6-------1-------------------------------6---------------11------------------|
B|-4---------------------------------------4--------------------------10---------------|
G|---------------------------------3-------------------------------------11-12-10------| 
D|---1---1---1---1---1---1---1---1---1---1---1---1---1---1---1---1----------------13\8-|
A|-------------------------------------------------3---3---3---3-----------------------|
E|-4---4---4---4---4---4---4---4---3---3---3---3---------------------------------------|


[Solo]

e|-----6-3---------1-10--9-8-----------6-3-------3-1---1-1-------------------|
B|-4-------6-4-3-4-3----------11--4--------6-4-6---3-------3-2-3-------------|
G|-----------------3-------------------------------3-----5-------------------|
D|---1------------------------1---1--1---------------------------------------|
A|---------------------------------------------------------------------------|
E|-4------------------------------4------------------------------------------|

e|-----6-3-----------10--9-8-------6--3----------------1---------------------|
B|-4-------6-4-3-4-6---------11--4------6-4-3-4-6-3----4---6-4-3-4-----------|
G|-----------------------------------------------------5---------------------|
D|---1-------1---------------1-----1------1--------1---5---------------------|
A|--1-------1---------------------1------1--------1----3---------------------|
E|-4-------4-------6-------------4------4-------6----------------------------|


[Chorus]

e|---------6-------1-----------------------6---------------------------------|
B|-4---------------3---------------4-----------------------------------------|
G|-----------------3-------------------------------3-------------------------|
D|---1---1---1---1---1---1---1---1---1---1---1---1---1---1---1---1-----------|
A|-----------------1---1---1---1-------------------3---3---3---3-------------|
E|-4---4---4---4-------------------3---3---3---3-----------------------------|

e|-----------------6-----------8---6---------------1-------------------------|
B|---------4-------3-------------------------------3-------------------------|
G|-3---------------3-------------------------------3-------------------------|
D|---1---1---1---1---1---1---1---1---1---1---1---1---1---1---1---1-----------|
A|-----------------1---1---1---1-------------------3---3---3---3-------------|
E|-4---4---4---4-------------------3---3---3---3-----------------------------|

e|---1---------------1---------------1-------------------3-1-----3-----------|
B|-----4---3--3--4-----4---3--3--4-----4---3--3--4-----4------4--------------|
G|-------3---------------3---------------3-----------3-----------------------|
D|---1---1---1---1---1---1---1---1---1---1---1---1---1---1---1---1-----------|
A|-----------------1---1-----------1---1---1---1---3---3---3---3-------------|
E|-4---4---4---4-----------3---4---------------------------------------------|

e|---1---------------1---------------1-------------------3-1-----3-----------|
B|-----4---3--3--4-----4---3--3--4-----4---3--3--4-----4------4--------------|
G|-------3---------------3---------------3-----------3-----------------------|
D|---1---1---1---1---1---1---1---1---1---1---1---1---1---1---1---1-----------|
A|---------------------------------3---3---3---3---1---1---1---1-------------|
E|-4---4---4---4---3---3---3---3---------------------------------------------|

e|---1---------------1---------------1-------------------3-1-----3-----------|
B|-----4---3--3--4-----4---3--3--4-----4---3--3--4-----4------4--------------|
G|-------3---------------3---------------3-----------3-----------------------|
D|-------------------------------------------------1-------------------------|
A|-----------------1---------------3-----------------------------------------|
E|-4-------------------------------------------------------------------------|

e|---1---------------1---------------1-------------------3-1-----3-----------|
B|-----4---3--3--4-----4---3--3--4-----4---3--3--4-----4------4--------------|
G|-------3---------------3---------------3-----------3-----------------------|
D|-------------------------------------------------1-------------------------|
A|-----------------1---------------3-----------------------------------------|
E|-4-------------------------------------------------------------------------|

e|---1-------------------------------1-------------------3-1-----3-----------|
B|-----4---3--3--4-----4---3--3--4-----4---3--3--4-----4------4--------------|
G|-3-----3-----------3---3---------3-----3-----------3-----------------------|
D|---------------------------------------------------------------------------|
A|---------------------------------------------------------------------------|
E|---------------------------------------------------------------------------|


************************************ 

| \   Slide down 

************************************

            
            
Suggest correction
Creating personal tab
Creating personal tab
You can edit any tab online and save it as your Personal.

You can edit, replace or remove any tab part or add personal notes – all changes will be seen only by you.

Personal tabs can be accessed anytime from any device, even offline.
Learn more »
comments
print report bad tab
4 comments total. Showing first comments.
0 reply
kavudx 10 Jun 12, 2016 08:36 AM

I beg you, please tune your guitar before tabbing, it`s clearly the wrong tune every fourth note. I can't believe I have to write at least 15 words!

0 reply
izdeb041 116 Mar 11, 2017 02:38 PM

His version is available now.

guest
You may want to rate the tab now too:
select rating
Wanna post a correction for this tab? Suggest correction