Oops, an error
Loading. Please wait.

Undertale - Your Best Friend tab

version 1
version 1

Whole song

  • Fixed ending note, slide from 14/16 instead of us 16.
  • This version has the correct way to play the backg... Show more
6,427 views 33 this week
1 commentread comment
1 2 3 4 5
x 10
add to favorites
×
Save as Personal and add changes to this tab that will be seen only by you. Learn more ›
×
You can save this tab as Personal to edit and correct it or add notes. All changes will be seen only by you. Learn more »
launch autoscroll
font size
0
reset
how to read this tab
guitar tuner
edit
Autoscroll
slow
fast
+/-
esc
set tempo
stop
Author
Difficulty
-------------------------------------------------------------------------------
                             Toby Fox - Your Best Friend! 
-------------------------------------------------------------------------------
Tabbed by: Moportalturret
E-mail: moportalturret@gmail.com

Disclaimer: I got this song completely by ear,  so i'm not 100% sure if these notes are correct.
This is what i could get.

Tuning: EADGBe

e|---------------------------------------------------------------------------|
B|----------------------------------------------11---------------------------|
G|-------7--7-8--10--7--8--8-10-5--2--7--7-8-10-----12--10-------------------|
D|---------------------------------------------------------------------------|
A|---------------------------------------------------------------------------|
E|---------------------------------------------------------------------------|

e|---------------------------------------------------------------------------|
B|------------------------------------------------------15-------------------|
G|-------7--7-8--10--7--8--8-10-5--2--8--8-10-5--2--3------------------------|
D|---------------------------------------------------------------------------|
A|---------------------------------------------------------------------------|
E|---------------------------------------------------------------------------|

[Guitar 2] (This ones plays through the entire song)

e|---------------------------------------------------------------------------|
B|---------------------------------------------------------------------------|
G|---------------------------------------------------------------------------|
D|-------7-----7-----7-----7-----7-----7-----7-----7-------------------------|
A|----8-----------8-----------8-----------8----------------------------------|
E|----------8-----------8-----------8-----------8----------------------------|

            
            
Suggest correction
Creating personal tab
Creating personal tab
You can edit any tab online and save it as your Personal.

You can edit, replace or remove any tab part or add personal notes – all changes will be seen only by you.

Personal tabs can be accessed anytime from any device, even offline.
Learn more »
comments
print report bad tab
1 comment total.
0 reply
chaseswatson 10 Jun 08, 2017 10:35 PM

nioce mate

guest
You may want to rate the tab now too:
select rating
Wanna post a correction for this tab? Suggest correction