Oops, an error
Loading. Please wait.

Undertale - Your Best Friend tab

version 2
version 2

Whole song

  • Fixed ending note, slide from 14/16 instead of us 16.
  • This version has the correct way to play the backg... Show more
1,567 views 3 this week
2 commentsread comments
1 2 3 4 5
x 8
add to favorites
×
Save as Personal and add changes to this tab that will be seen only by you. Learn more ›
×
You can save this tab as Personal to edit and correct it or add notes. All changes will be seen only by you. Learn more »
launch autoscroll
font size
0
reset
how to read this tab
guitar tuner
edit
Autoscroll
slow
fast
+/-
esc
set tempo
stop
Author
Difficulty
About this tab version
Fixed ending note, slide from 14/16 instead of us 16. Was this info helpful? Yes No
[Intro/Background]
e|-------4-8---8-4-8---8-----------------------------------------------------|
B|-----------4-------4-------------------------------------------------------|
G|---------------------------------------------------------------------------|
D|---------------------------------------------------------------------------|
A|---------------------------------------------------------------------------|
E|---------------------------------------------------------------------------| 

e|--8-8-9-11-8--9-9-11-8-------8-8-9-11-16-13-11-----------------------------|
B|-----------------------4---------------------------------------------------|
G|---------------------------------------------------------------------------|
D|---------------------------------------------------------------------------|
A|---------------------------------------------------------------------------|
E|---------------------------------------------------------------------------|

e|--8-8-9-11-8--9-9-11-8-------8-8-9--------14/16-------------------------------|
B|-----------------------4-----------11-8-9----------------------------------|
G|---------------------------------------------------------------------------|
D|---------------------------------------------------------------------------|
A|---------------------------------------------------------------------------|
E|---------------------------------------------------------------------------|
Suggest correction
Creating personal tab
Creating personal tab
You can edit any tab online and save it as your Personal.

You can edit, replace or remove any tab part or add personal notes – all changes will be seen only by you.

Personal tabs can be accessed anytime from any device, even offline.
Learn more »
comments
print report bad tab
2 comments total.
+1 reply
bladerunner170 34 Apr 05, 2016 09:39 AM

There you go, guys! Full tab. I transcribed it from the piano version, so i know it's correct.

0 reply
xxlightxx700 10 Mar 17, 2017 11:52 AM

5 stars! but idk if its just me, but I like to instead of ending on 16 I slide from 14 to 16 so 14/16. just a suggestion. but otherwise perfect!

guest
You may want to rate the tab now too:
select rating
Wanna post a correction for this tab? Suggest correction