Oops, an error
Loading. Please wait.

Valve - Banjo Ost Left 4 Dead 2 Tab

589 views 27 this week
no commentswrite comment
1 2 3 4 5
3 more votes to show rating
add to favorites
launch autoscroll
font size
0
reset
how to read this tab
guitar tuner
Autoscroll
slow
fast
+/-
esc
set tempo
stop
Help us to improve Ultimate-Guitar.com Take our survey!
×
Author
Difficulty
novice
About this tab version
It's the only version you can find. Was this info helpful? Yes No
                                       BANJO OF DEATH - LEFT 4 DEAD 2
                                           ---------------------

[Riff 1]

e|-----------|
B|----9-8----|
G|-----------|   
D|-/7--------|
A|-----------|
E|-----------|


[Riff 2]

e|--------------------------------------------------------------------|
B|--------------------------------------------------------------------|
G|-----------------9---9---9---9---10---9---7---10---9---9---9---9----|   
D|-7---7---7---7-----7---7---7---7----0---0---0----0---7---7---7---7--|
A|---0---0---0---0----------------------------------------------------|
E|--------------------------------------------------------------------| 

e|----------------------------------------------------------------------|
B|----------------------------------------------------------------------|
G|-10---10---9---9---9---9---9---9----10---10---6---7---9---9---9---9---|   
D|----9----9---7---7---0---0---0---0-----0---0----0---0---7---7---7---7-|
A|----------------------------------------------------------------------|
E|----------------------------------------------------------------------| 

e|-----------------------------------------------------------------------|
B|-----------------------------------------------------------------------|
G|-10---9---7---10---9---9---9---9---8-----------------------------------|   
D|----0---0---0----0---7---7---7---7-------11---8---10---9---9---9---9---|
A|--------------------------------------0-----0---0----0---0---0---0---0-|
E|-----------------------------------------------------------------------| 

e|-------------------------|
B|-------------------------|
G|-8-----------------------|   
D|-------11---8---10---9---|
A|---0------0---0----0-----|
E|-------------------------|


************************************

| /  Slide up

************************************
Suggest correction
Give kudos to tab author, rate the tab!
1 2 3 4 5
comments
print report bad tab
guest
You may want to rate the tab now too:
select rating
Wanna post a correction for this tab? Suggest correction